Ya No Hay Forma de Pedir Perdón

Pedro Aznar

 Pedro Aznar
Tom: G
		
Obs.: Essa mísica é uma versão espanhol de uma canção do Elton John por Pedro Aznar.

                                         Cm7

e|--10--10--10--10--10--10----6--5--3--------
B|---8---8---8---8---8---8-------------3--4--
G|--10--10---9---9---8---8------------------
D|------------------------------------------
A|------------------------------------------
E|------------------------------------------

                             D7

e|--7--8------------------------2--3--5--6--5-
B|-------8--------------3---------------------
G|----------8--7--5---------------------------
D|--------------------------------------------
A|-------------------0------------------------
E|--------------------------------------------


Gm                       Bb/F      Cm7+9
¿Cómo voy a lograr que aún me quieras?
F                 F/A            Bb Am7b5 (II-4-3) D7(I-3-2)
¿Cómo lograr que quieras escuchar?
Gm           Bb/F         CM7+9   
Cuando este fuego me desvela
F                F/A          Bb Am7b5 (II-4-3) D7(I-3-2)
pero despierto solo una vez más
Gm         Bb/F         Cm7+9      
¿Cómo lograr verte de nuevo?
F               F/A           Bb Am7b5 (II-4-3) D7(I-3-2)
¿Cómo he de recobrar tu corazón?
Gm          Bb/F            Cm7+9
¿Cómo aceptar que todo ha muerto
F                   F/A       Bb Am7b5 (II-4-3)
y ya no hay forma de pedir perdón?
Eb/G     D/F#   
Qué mal, qué mal,
Bb/F           Em7b5  
esta absurda y triste historia
Cm/Eb       D7  D7/F# Gm Am7b5 (II-4-3) D7(I-3-2)
que se pone cada vez peor
Eb/G     D/F#   
Qué mal, qué mal,
Bb/F                  C7/E
¿por qué ni puedo hablarte?
Eb
Temo que es así,
      Cm7           D7            Gm
que ya no hay forma de pedir perdón

¿Cómo lograr que aún me quieras?
¿Cómo lograr que quieras escuchar?
Cuando este fuego me desvela...
¿Qué es lo que voy a hacer?
¿Qué es lo que voy a hacer
si ya no hay forma de pedir perdón?
15.886 exibições

Comentários 0

Composição: Elton John
Esse não é o compositor? Avise-nos.
Contribuição: Fernando
Consegui tocarAinda não conseguiram tocar essa música. Seja o primeiro!
    Não consegui tocar
    Exibir acordes »
    publicidade
    fechar