Acordar do Seu Lado

Pedro Daniel

Sem foto do Pedro Daniel
Tom: G
		
Intro:

  G   D9/F#   A9   E
E|------------------------|
B|3--3-3---3--0--0-0--0-0-|
G|--0-----0-0---2----1-1--|
D|------------2-----------|
A|-----------------2------|
E|3----2------------------|


G    D9/F#     A9    E             G
Acordar do seu lado, Sempre te ter
      D9/F#      A9       E        G
ver o seu rosto lindo ao amanhecer,
   D9/F#      A9     E            G
olhar no seu olho e poder dizer ,
     D9/F#            A9        E
e demonstrar que te quero,que amo você.

G5          E5        D5  C5
sentado no quarto a escrever ,
         A5                  G5
essa canção q eu fiz pra você,
             E5              D5 C5
com o meu violão começo a entender,
                   A5                        G5
o que você foi pra mim e que não vou te esquecer.
   G5         E5          C5        A5
E|-------------------------------------------|
B|-------------------------------------------|
G|-------------9----9------5----5------------|
D|--5----5----9-9--9-9----5-5--5-5---7----7--|(2x)
A|-5-5- 5-5--7----7----5-3----3-----7-7--7-7-|
E|3----3---------------------------5----5----|

Procuro palavras pra te explicar,
que tudo o que faço só me faz lembrar,
do seu jeito de ser ,do seu jeito de amar
e tanto tempo contigo fez eu me apaixonar.

G     D9/F#   A9      E          G
com o meu violão começo a entender,
      D9/F#        A9         E               G
o que você foi pra mim e que não vou te esquecer,
       D9/F#         A9        E     G
e demonstrar que te quero,que amo você,

(G-D9/F#-A9/E)


amo você
514 exibições

Comentários 0

Composição: Sabe quem é o compositor? Envie pra gente. Contribuição: pepa.
Consegui tocarAinda não conseguiram tocar essa música. Seja o primeiro!
    Não consegui tocar
    Exibir acordes »
    publicidade
    fechar