A Batalha

PG

 PG Compositor: PG e Téo Dornellas
Tom: C#
		
(afinação C)

(intro)


C |--------------------|-----------------|---------------|---------------
G |--------------------|-----------------|---------------|---------------
Eb|-------------------|-----------------|---------------|---------------
Bb|-------------------|------------5--4-|---------------|---------------
F |--5---3---6---3---5-|5---3---6--------|5--3---6---3--5|5---3----6----3
C |--0-----------------|0----------------|0--------------|0--------------



C |--------------------|-----------------|---------------|
G |--------------------|-----------------|---------------|
Eb|-------------------|-----------------|---------------|
Bb|-------------------|------------5--4-|---------------|
F |--5---3---6---3---5 | 5---3---6-------|5--3---6---3--5|
C |--0-----------------|-0---------------|0--------------|


(pode fazer o acorde de C5 fazendo o baixo em E)

C |------
G |------
Eb|-5---
Bb|-5--5
F |--3--3
C |--0---

(pode fazer o acorde de Bb5 fazendo novamente o baixo em E)

C |------
G |------
Eb|-3---
Bb|-3--3
F |--1--1
C |--0---

(parte opicional, alguns encaixam na música inclusive o Teo Dornellas e essa parte é feita juntamente com a 1ª batida da bateria)

C |---
G |---
Eb|-2
Bb|-2
F |--0
C |--0

(intro)

Olho ao redor, somente muralhas para vencer
Pode parecer impossível para quem vê
Mas os problemas não vão me parar, eu sei
Deus nunca irá me abandonar
C                            C
Os meus inimigos estão em total desespero
As muralhas começam a cair
C                                 C
El Shadai avisou: "seja forte e não desanimes,
A batalha está em minhas mãos”
C5                       Ab5        Bb5
Marche! Suas armas, em Cristo, não são carnais
 C#5 C5 (5x)
     O Espírito te fará vencer
    C5                 Ab5
O inferno não tem esperança
      Bb5    C5
A justiça de Deus prevalecerá

(intro)
C                      Gb
Comece a cantar, as muralhas cairão

Glorifique ao Todo-Poderoso
C                                  Gb
As promessas de uma nação estão marcadas

Os covardes não viverão para contar a história

(refrão)

( C5  Gb5 G4  C5 Gb5 G4 )

(solo)

C |------------------------------
G |-----6----6----6----4---------
Eb|-5----5----5-----------6----5
Bb|-----------------------------
F |------------------------------
C |------------------------------



C |------------------------------
G |-----6----6----6----4----6----
Eb|-5----5----5----------------5
Bb|-----------------------------
F |------------------------------
C |------------------------------


Permanecer parado não te fará vencer
Cante! Marche! Seja santo e creia, não em tua força,
Mas no poderoso braço de Deus

(volta ao refrão)

Comentários 1

Composição: PG E TÉO DORNELLAS
Esse não é o compositor? Avise-nos.
Contribuição: Edvandro Reis Correções: Alelkaguitar »
Exibir acordes »
publicidade
fechar