Ele ressuscitou

PG

 PG
Tom: G
		
(Tablatura de guitarra / violão) 
 

------------------------------------------------------------------------------ 
------------------------------------------------------------------------------ 
-----400-400-402-400-402-400-39-400-402-402----------------------------------- 
-502----------------------------------------500-500-502----------------------- 
--------------------------------------------------------58-600-58-600-602----- 
------------------------------------------------------------------------------ 

                                                                               
 

----------------|------------|-------------------------|---------------------- 
----------------|------------|-------------303-303-----|-308-307-307-308-307-- 
----------------|------------|-402-402-------------400-|---------------------- 
----------------|-502-502----|---------500-------------|---------------------- 
-----602-602----|---------600|-------------------------|---------------------- 
-702---------702|------------|-------------------------|---------------------- 

                                                                               
 

-----------------------------------------210-210--------|--------------------- 
-----307-308-310-310-310-310-308-310-310---------308-310|--------------------- 
-409----------------------------------------------------|--------------------- 
--------------------------------------------------------|--------------------- 
--------------------------------------------------------|--------------------- 
--------------------------------------------------------|--------------------- 

                                                                               
 

-------------203-205-207-203-205-|-203-205-207-203-205-203-205-207-203-205|--- 
-303-305-307---------------------|----------------------------------------|--- 
---------------------------------|----------------------------------------|--- 
---------------------------------|----------------------------------------|--- 
---------------------------------|----------------------------------------|--- 
---------------------------------|----------------------------------------|--- 

                                                                               
 

-202-203-205-202-203-202-203-205-202-203-|-200-202-203-200-202-|-------------- 
-----------------------------------------|---------------------|-300-305-305-- 
-----------------------------------------|---------------------|-------------- 
-----------------------------------------|---------------------|-------------- 
-----------------------------------------|---------------------|-------------- 
-----------------------------------------|---------------------|-------------- 

                                                                               
 

-------------------------|------------|--------|-18-200-202-202-200-18-|-18--- 
-300-305-300-------------|------------|--------|-----------------------|------ 
-------------402-400-402-|------------|-39-402-|-----------------------|------ 
-------------------------|-49-500-502-|--------|-----------------------|------ 
-------------------------|------------|--------|-----------------------|------ 
-------------------------|------------|--------|-----------------------|------ 

                                                                               
 

-200-202-203-202-200-|------------18-200-202-202-200-18-|-----------16-18----- 
---------------------|-28-300-301-----------------------|-26-28-300----------- 
---------------------|----------------------------------|--------------------- 
---------------------|----------------------------------|--------------------- 
---------------------|----------------------------------|--------------------- 
---------------------|----------------------------------|--------------------- 

                                                                               
 

-200-200-18-16-|----------15-16-18-18-16-15-|-16-15-13-15-13-11-|----------|-- 
---------------|-25-26-28-------------------|-------------------|-25-26-28-|-- 
---------------|----------------------------|-------------------|----------|-- 
---------------|----------------------------|-------------------|----------|-- 
---------------|----------------------------|-------------------|----------|-- 
---------------|----------------------------|-------------------|----------|-- 

                                                                               
 

-15----------------------------|-------------------------------------|-------- 
----28-26-25-------------------|-------------------------------------|-------- 
-------------37-35-33----------|----------32-------------------------|-------- 
----------------------47-45-43-|-42-43-45----45-43-42----------------|-------- 
-------------------------------|----------------------55-53-51-50----|-------- 
-------------------------------|----------------------------------63-|-65-68-- 

                                                                               
 

-----------------------|---------210-----210-----208-207-205-207-208-207-|---- 
-----------------------|-----307-----310-----310-------------------------|---- 
----------33-35----400-|-404---------------------------------------------|---- 
----43-45--------------|-------------------------------------------------|---- 
-55--------------------|-------------------------------------------------|---- 
-----------------------|-------------------------------------------------|---- 

                                                                               
 

-------------205-207---------------------------------|------------------------ 
-305-307-308---------308-307-305---------------------|------------------------ 
---------------------------------407-405-404---------|-------------------32--- 
---------------------------------------------507-505-|----------41-43-45------ 
-----------------------------------------------------|-51-53-55--------------- 
-----------------------------------------------------|------------------------ 
****** 1X deste geito e 1 x uma oitava a baixo ******                          

 

------------------------------------------------------------------------------ 
-------23-24-26--------------------------------------------------------------- 
-33-35------------------------------------------------------------------------ 
------------------------------------------------------------------------------ 
------------------------------------------------------------------------------ 
------------------------------------------------------------------------------ 

                                                 
Obs: não está notado os tremulos e os bend * pegue o cd e descubra - as notas  
são estas....blz. 
Obs 02: Afinar Mi em Ré
24.607 exibições

Comentários 1

  • jhon1993 jhon1993: Postado em 28/06/2012 13:32

    os zeros represento oq nessa tab? :S

Consegui tocarAinda não conseguiram tocar essa música. Seja o primeiro!
    Não consegui tocar
    Exibir acordes »
    publicidade
    fechar