Meu Universo

PG

 PG
Tom: D
		

E|--------------------------------------------------------------------------------|
B|----/8-----8--10-------10b12r10--10--8--7---8-----------------------------------|
G|--------7----------7------------------------------------------------------------|
D|--------------------------------------------------------------------------------|
A|--------------------------------------------------------------------------------|
E|--------------------------------------------------------------------------------|



E|--------------------------------------------------------------------------------|
B|------8---10---12b--12--10--8--10b12r11b12r10-10--------------10--12--10--------|
G|---7---------------------------------------------------11-12--------------12----|
D|----------------------------------------------------12--------------------------|
A|--------------------------------------------------------------------------------|
E|--------------------------------------------------------------------------------|



E|--------------------------------------------------------------------------------|
B|------------------------------------8h10--8--------8h10--8--10b12r10--10--8-----|
G|-----9--7--7--9------------------------------9--7-------------------------------|
D|-----------------7h9------------------------------------------------------------|
A|-----------------------5-7-5----------------------------------------------------|
E|--------------------------------------------------------------------------------|



E|--------------------------------------------------------------------------------|
B|-----8--7--------8/10----10b12r10-10----8---------------------------------------|
G|-----------9--7-----------------------------------------------------------------|
D|--------------------------------------------------------------------------------|
A|--------------------------------------------------------------------------------|
E|--------------------------------------------------------------------------------|

Texto Colunas
Alterar tom ½ tom ½ tom
afinação acordes na letra esconder tabs mais »

Comentários (6)

  • melkguitariista melkguitariista: Postado em 02/09/2013 10:58

    Ta certo essa cifra

    • EduardoC78 EduardoC78: Postado em 26/01/2014 00:32

      Vixi ta parecendo qq ta não em cara,,

  • danskys danskys: Postado em 07/09/2012 00:57

    arrumei a primeira parte q eu peguei agora do solo vo corrigi a tab 1

  • danskys danskys: Postado em 07/09/2012 00:23

    esse solo ta tudo errado

  • wellingtonrjp wellingtonrjp: Postado em 11/02/2012 14:10

    esse solo eh muito lindo vlw galeera cifra club

  • Samu Samu: Postado em 11/02/2011 12:47

    vlw que DEUS te abençõe foi muito util

Composição: JESUS A. ROMERO / VERSÃO: PG
Esse não é o compositor? Avise-nos.
Contribuição: Luís Geovanny Correções: gabriel e mais 1 »
  1. Tudo Que Você Quiser - Luan Santana Manteve-se 5.838 exibições
  2. Lepo Lepo - Psirico Manteve-se 4.258 exibições
  3. Mozão - Lucas Lucco Manteve-se 4.092 exibições
  4. Logo Eu - Jorge e Mateus Manteve-se 3.677 exibições
  5. Gaveta - Fernando e Sorocaba Manteve-se 3.251 exibições
  6. Só Os Loucos Sabem - Charlie Brown Jr. Manteve-se 2.945 exibições
  7. Pra Você - Onze:20 Manteve-se 2.783 exibições
  8. Tempo Perdido - Legião Urbana Manteve-se 2.356 exibições
  9. Fui Fiel - Gusttavo Lima Manteve-se 2.236 exibições
  10. Na Linha do Tempo - Victor e Leo Manteve-se 2.111 exibições
  1. Jorge e Mateus- Manteve-se 22.167 exibições
  2. Legião Urbana- Manteve-se 19.327 exibições
  3. Luan Santana- Manteve-se 17.248 exibições
  4. Charlie Brown Jr.- Manteve-se 16.750 exibições
  5. Fernandinho- Manteve-se 14.218 exibições
  6. Thalles Roberto- Manteve-se 10.904 exibições
  7. Católicas- Manteve-se 10.314 exibições
  8. Aline Barros- Manteve-se 10.062 exibições
  9. Victor e Leo- Manteve-se 10.039 exibições
  10. Gusttavo Lima- Manteve-se 9.893 exibições
Exibir acordes »

Cifras e tabs

Fórum Cifra Club

Aprenda

Cifra Club News

Mais Serviços Cifra Club ID

Studio Sol

©1996 - 2014 Cifra Club · o primeiro, maior e mais acessado do Brasil · 329 mil músicas · 5.9 milhões pessoas cadastradas

publicidade
fechar