Meu Universo

PG

 PG
Tom: D
		

E|--------------------------------------------------------------------------------|
B|----/8-----8--10-------10b12r10--10--8--7---8-----------------------------------|
G|--------7----------7------------------------------------------------------------|
D|--------------------------------------------------------------------------------|
A|--------------------------------------------------------------------------------|
E|--------------------------------------------------------------------------------|



E|--------------------------------------------------------------------------------|
B|------8---10---12b--12--10--8--10b11r10b12r10-10--------------10--12--10--------|
G|---7---------------------------------------------------11-12--------------12----|
D|----------------------------------------------------12--------------------------|
A|--------------------------------------------------------------------------------|
E|--------------------------------------------------------------------------------|



E|--------------------------------------------------------------------------------|
B|------------------------------------8h10--8--------8h10--8--10b12r10--10--8-10--|
G|-----9--7--7--9------------------------------9--7-------------------------------|
D|-----------------7h9------------------------------------------------------------|
A|-----------------------5-7-5----------------------------------------------------|
E|--------------------------------------------------------------------------------|



E|--------------------------------------------------------------------------------|
B|-----8--7--------8/10----10b12r10-10----8---------------------------------------|
G|-----------9--7-----------------------------------------------------------------|
D|--------------------------------------------------------------------------------|
A|--------------------------------------------------------------------------------|
E|--------------------------------------------------------------------------------|

Comentários 6

  • melkguitariista melkguitariista: Postado em 02/09/2013 10:58

    Ta certo essa cifra

    • EduardoC78 EduardoC78: Postado em 26/01/2014 00:32

      Vixi ta parecendo qq ta não em cara,,

  • danskys danskys: Postado em 07/09/2012 00:57

    arrumei a primeira parte q eu peguei agora do solo vo corrigi a tab 1

  • danskys danskys: Postado em 07/09/2012 00:23

    esse solo ta tudo errado

  • wellingtonrjp wellingtonrjp: Postado em 11/02/2012 14:10

    esse solo eh muito lindo vlw galeera cifra club

  • Samu Samu: Postado em 11/02/2011 12:47

    vlw que DEUS te abençõe foi muito util

Composição: JESUS A. ROMERO / VERSÃO: PG
Esse não é o compositor? Avise-nos.
Contribuição: Luís Geovanny Correções: Fabinho e mais 2 »
Exibir acordes »
publicidade
fechar