Crazy Monkey Woman

Pietasters

Sem foto do Pietasters
Tom: C
		
This is my first time tabbing so bare with me if its not that well presented.


Intro:


e-------------------------------------------------------------|
b-------------------------------------------------------------|
g-------------------------------------------------------------|
d---5---5--0--3--4--5-----------------------------------------|
a----------------------5-5-5-5-5-5-5--------------------------|
e-------------------------------------------------------------|


verse:
Part A


e------------------------------------------------------------------|
b------------------------------------------------------------------|
g------------------------------------------------------------------|
d--5-5-5-5-5-5-5-5-5-5-5-5-5-5-5-5-5-5-5-5-5-5-5-5-5-5-5-5-5-5-5-5-|
a--5-5-5-5-5-5-5-5-5-5-5-5-5-5-5-5-5-5-5-5-5-5-5-5-5-5-5-5-5-5-5-5-|
e--3-3-3-3-3-3-3-3-3-3-3-3-3-3-3-3-3-3-3-3-3-3-3-3-3-3-3-3-3-3-3-3-|

Part B

e------------------------------------------------------------------|
b------------------------------------------------------------------|
g--5-5-5-5-5-5-5-5-5-5-5-5-5-5-5-5---------------------------------|
d--5-5-5-5-5-5-5-5-5-5-5-5-5-5-5-5-5-5-5-5-5-5-5-5-5-5-5-5-5-5-5-5-|
a--3-3-3-3-3-3-3-3-3-3-3-3-3-3-3-3-5-5-5-5-5-5-5-5-5-5-5-5-5-5-5-5-|
e----------------------------------3-3-3-3-3-3-3-3-3-3-3-3-3-3-3-3-|

Part C

e---------------------------------------------------------------------|
b---------------------------------------------------------------------|
g-1010101010101010-9-9-9-9-9-9-9-9-9----------------------------------|
d-1010101010101010-9-9-9-9-9-9-9-9-9--5---5--0--3--4--5---------------|
a-8-8-8-8-8-8-8-8--7-7-7-7-7-7-7-7-7--------------------5-5-5-5-5-5-5-|
e---------------------------------------------------------------------|



breakdown:

intro
verse in orderx5
verse part C x3
solo (rythem gutar play verse)
verse part C x3
end on a D power chord
206 exibições

Comentários 0

Consegui tocarAinda não conseguiram tocar essa música. Seja o primeiro!
    Não consegui tocar
    Exibir acordes »
    publicidade
    fechar