Another Brick In The Wall, Part 2

Pink Floyd

 Pink Floyd
Tom: C
		
Primeira Parte:
                           Dm
We dont need no education
We dont need no thought control
No dark sarcasm in the classroon
Teachers leave them kids alone

Segunda Parte:
G                                    Dm
     Hey! Teacher! leave them kids alone
F                           C                        Dm
     All in all it's just    another brick in the wall
F                           C                        Dm
     All in all you're just    another brick in the wall

Primeira Parte:
                           Dm
We dont need no education
We dont need no thought control
No dark sarcasm in the classroon
Teachers leave them kids alone

Segunda Parte:
G                                    Dm
     Hey! Teacher! leave them kids alone
F                           C                        Dm
     All in all you're just    another brick in the wall
F                           C                        Dm
     All in all you're just    another brick in the wall
Solo:

E|---------------------------------------------------
B|-13p10----10-------15-13b15---10-10-x-10-----------
G|-------12----12/14------------10-10-x-10-----------
D|---------------------------------------------------
A|---------------------------------------------------
E|---------------------------------------------------



E|---------------------------------------------------
B|-13-b15-b17-r15-r13~---13p10-----------------------
G|-----------------------------12-12b14~-------------
D|---------------------------------------------------
A|---------------------------------------------------
E|---------------------------------------------------



E|---------------------------------------------------
B|------------------------10---10-10-----------------
G|-10p9----9-------10-----10---10-10-----------------
D|------12---10/12----12~----------------------------
A|---------------------------------------------------
E|---------------------------------------------------



E|---------------------------------------------------
B|-10-10----10-10----12-12-10~\----------------------
G|-10-10----10-10----12-12-10~\----------------------
D|-------12-------12---------------------------------
A|---------------------------------------------------
E|---------------------------------------------------



E|----13b15r13-13-13---------------------------------
B|---x-----------------13-b15-b17-b18-r13-b15--------
G|--x------------------------------------------------
D|-x-------------------------------------------------
A|---------------------------------------------------
E|---------------------------------------------------



E|----------10---------------------------------------
B|-------10----13p10---------------------------------
G|-12b14-------------12--b14r12p10--12p10-----10p7---
D|----------------------------------------12-------10
A|---------------------------------------------------
E|---------------------------------------------------



E|---------------------------------------------------
B|---------------------------------------------------
G|-7p5-----------------------------------------------
D|-----7--10p7---------------------------------------
A|-------------10--10p8----------10p8----------------
E|----------------------10-8-10-------10-8-10\-------



E|---------------------------------------------------
B|---------5h6p5--------------------6b---------------
G|-----5-7-------7-7p5----5/7-7-7p5------------------
D|-5/7-----------------7-----------------------------
A|---------------------------------------------------
E|---------------------------------------------------



E|---------------------------------------------------
B|-13b15--13-b15-b17-r15-r13~------------------------
G|---------------------------------------------------
D|---------------------------------------------------
A|---------------------------------------------------
E|---------------------------------------------------



E|----15b17--13--------13----15b17~-17r15------------
B|---x---------15--/15----15--------------15---------
G|--x------------------------------------------------
D|-x-------------------------------------------------
A|---------------------------------------------------
E|---------------------------------------------------



E|-17b20-b20--20b22--20-17--20p17--------------------
B|---------------------------------------------------
G|---------------------------------------------------
D|---------------------------------------------------
A|---------------------------------------------------
E|---------------------------------------------------



E|---------------------------------------------------
B|-------------------------12-----10---12\10~--------
G|-10-10-10----------------12-----10---12\10~--------
D|----------12~--x-x-10/12-----12--------------------
A|---------------------------------------------------
E|---------------------------------------------------



E|---------------------------------------------------
B|---------------------------------------------------
G|--------------7~-----------------------------------
D|-x-x-10p7-x-x-----x-5-x-3-x-3-x-3p0----------------
A|---------------------------------------------------
E|---------------------------------------------------

Comentários 86

  • Vanessa Vanessa: Postado em 11/12/2014 13:29

    Agora e so acompanhar no guitar backing track

  • mauricio.correa.1004 mauricio.correa.1004: Postado em 08/12/2014 22:48

    Melhor music ever! Primeira musica q aprendi a tocar.

  • Ricardinho Ricardinho: Postado em 03/12/2014 16:35

    na letra da musica ta escrito classron kkkk

  • Mateus Mateus: Postado em 03/07/2014 11:23

    várias sí estourando !!!

  • Mauro Mauro: Postado em 23/06/2014 12:37

    Cifraclub cada vez melhor! Didática excelente. Só não aprende quem não quiser, parabéns !

  • marcelo.pavani.58 marcelo.pavani.58: Postado em 19/05/2014 23:55

    uma coisa que aprendi aqui é que nem sempre uma video aula cumprida significa uma musica dificil! Otima aula peguei ela inteira

  • Lucas Lucas: Postado em 06/02/2014 20:02

    another brick in the wall part 1, the happiest day of our lives, another bick in the wall parte 2 e depois parte 3

  • leandro.depaula.5030 leandro.depaula.5030: Postado em 19/10/2013 13:20

    facil

  • jerisonr jerisonr: Postado em 12/05/2013 12:26

    acabo de estourar minha corda si kkkk

  • lynconmenegon lynconmenegon: Postado em 29/03/2013 16:43

    o mais dificil dosolo é alcançar os bends mas o resto de boa

Exibindo 10 de 86 comentários Mostrar mais ver todos »
Composição: Roger Waters
Esse não é o compositor? Avise-nos.
Contribuição: Isaque Correções: philippelobo , fran8a e mais 4 »
Exibir acordes »
publicidade
fechar