Another Brick In The Wall, Part 2

Pink Floyd

 Pink Floyd
Primeira parte:
G|---------------------------------------------------
D|---------------------------------------------------
A|-----3-5-5-5-0-0-3-3---3-5-5-5-0-0-3-3-------------
D|-0-0-----------------0-----------------------------

G|---------------------------------------------------
D|---------------------------------------------------
A|---3-5-5-5-0-0-3-3---3-5-5-5-0-0-3-3---------------
D|-0-----------------0-------------------------------

We don't need no education
We don't need no thought control
No dark sarcasm in the classroom
Teachers leave them kids alone

Segunda parte:
G|---------------------------------------------------
D|---------------------------------------------------
A|------------------5-3-5-5-5-0-0--------------------
D|-5-5-5-5-5-5-5-5/---------------5------------------

G|---------------------------------------------------
D|---------------------------------------------------
A|---3-3h5---3-5-5-5-0-0-------3-3h5-----------------
D|-3-------0-------------5-5-3-------0---------------

(...)
Hey! Teacher! Leave them kids alone!
All in all it's just another brick in the wall
All in all you're just another brick in the wall

Repetição da primeira parte:
G|---------------------------------------------------
D|---------------------------------------------------
A|-----3-5-5-5-0-0-3-3---3-5-5-5-0-0-3-3-------------
D|-0-0-----------------0-----------------------------

G|---------------------------------------------------
D|---------------------------------------------------
A|---3-5-5-5-0-0-3-3---3-5-5-5-0-0-3-3---------------
D|-0-----------------0-------------------------------

(...)
We don't need no education
We don't need no thought control
No dark sarcasm in the classroom
Teachers leave them kids alone

Repetição da segunda parte:
G|---------------------------------------------------
D|---------------------------------------------------
A|------------------5-3-5-5-5-0-0--------------------
D|-5-5-5-5-5-5-5-5/---------------5------------------

G|---------------------------------------------------
D|---------------------------------------------------
A|---3-3h5---3-5-5-5-0-0-------3-3h5-----------------
D|-3-------0-------------5-5-3-------0---------------

G|---------------------------------------------------
D|---------------------------------------------------
A|-5-3-5-5-5-0-0-3-3---------------------------------
D|---------------------------------------------------

(...)
Hey! Teacher! Leave us kids alone!
All in all you're just another brick in the wall
All in all you're just another brick in the wall

Solo de guitarra:
G|---------------------------------------------------
D|---------------------------------------------------
A|-5-3-5-5-5-0-0-3---3-5-5-3-5----------------------- (7x)
D|-----------------0---------------------------------

G|---------------------------------------------------
D|---------------------------------------------------
A|-5-3-5-5-3-5-5-3-5---------------------------------
D|---------------------------------------------------

(...)
"Wrong, Do it again!"
"Wrong, Do it again!"
"If you don't eat yer meat, you can't have any
pudding. How can you
have any pudding if you don't eat yer meat?"
"You! Yes, you behind the bikesheds, stand still lady!"

Comentários 9

  • Lucas Lucas: Postado em 12/06/2014 12:16

    primeira musica que aprendi ^^

  • guigo002 guigo002: Postado em 15/10/2013 11:49

    Como eu consigo o Backing track?

  • dudugaloo dudugaloo: Postado em 19/08/2013 15:32

    cara! tu é mito vei!! vc é foda!!!! kkk

  • Carlos Carlos: Postado em 27/07/2013 11:05

    Felipe faz mais vídeo-aulas com as músicas do RHCP

  • Emmanuel Emmanuel: Postado em 13/05/2013 20:12

    Massa pra carai

  • serenavdw serenavdw: Postado em 29/05/2012 22:49

    fácil pra carai

Composição: Roger Waters
Esse não é o compositor? Avise-nos.
Contribuição: dk Correções: Filipe e mais 1 »
publicidade
fechar