Time

Pink Floyd

 Pink Floyd
Tom: A
		
Na parte do verso com distorção é mais indicado que se use algo suave
e sem muito gain, na parte do verso com som limpo, eu uso chorus e echo
e fica bem legal, mas se preferir, use só o som limpo do próprio amplificador mesmo.

 = (Harmônico Natural)

Afinação: (EBGDAE)

Intro (0:54 – 2:28) (c/ pouca distorção):

|-----------------------------------------|
|-----------------------------------------|
|-----------------------------------------|
|-----------------------------------------|
|-----------------------------------------|
|--0----2----0----2----0----0h1--2----0---|



|--------------------------|
|--------------------------|
|--------------------------|
|------------------2-------|
|-------------2h4----------|
|--0h1--2-------------2----|



|-----------------------------------------|
|---------------------------------------------|
|---------------------------------------------|
|---------------------------------------------|
|-------0-------------------------------------|
|--2---------2b4-2---0----0h1--2----2---------|


Verso 1:
(distorção)
F#m                                      A
ticking away the moments that make up a dull day
     E                                         F#m
you fritter and waste the hours in an off hand way
F#m                                         A
kicking around on a piece of ground in your home town
E                                                F#m
waiting for someone or something to show you the way

(som limpo)
D7+
tired of lying in the sunshine
A7+
staying home to watch the rain
D7+
you are young and life is long
    A7+
and there is time to kill today
D7+
and then one day you find
C#m
ten years have got behind you
Bm
no one told you when to run
E
you missed the starting gun

solo 1 (3:28 – 3:56) (c/ distorção):

  (base: F#m A E F#m F#m A E F#m)
|--------------------------------------------------------------|
|--------------------------------------------------------------|
|-----4b(6)rb(4)--4b(6)rb(4)--2--4b(6)rb(6)--2--4--------------|
|--4-----------------------------------------------4b(6)rb(4)--|
|--------------------------------------------------------------|
|--------------------------------------------------------------|



|-----------------------5----|
|------5----5h7-5h7-5h7----7-|
|--6-------------------------|
|----------------------------|
|----------------------------|
|----------------------------|



|-----------------------------------------|
|-----------------------------------------|
|-----4b(6)--4b(6)rb(4)--2--4b(6)--4b(6)--|
|--4--------------------------------------|
|-----------------------------------------|
|-----------------------------------------|



|--------9--9--9b(11)--9--------------------------|
|-------------------------10b(12)--9--9-----------|
|--8h9-----------------------------------9--9~~~--|
|-------------------------------------------------|
|-------------------------------------------------|
|-------------------------------------------------|


solo 2 (3:58 – 4:25) (c/ muita distorção):

  (base: F#m A E F#m F#m A E F#m)
|-------------------------17--17b(19)---------------------|
|-------------14-17b(19)---------------17-17-17-----------|
|---------14-------------------------------------16b(18)--|
|--15h16--------------------------------------------------|
|---------------------------------------------------------|
|---------------------------------------------------------|



|-----------------------------12--12-------------------|
|-------------------------------------12b(14)--10------|
|--14b(16)----14--12--12~~~------------------------11--|
|------------------------------------------------------|
|------------------------------------------------------|
|------------------------------------------------------|



|------17b(19)rb(17)-------------------------------------------------|
|--14-----------------17b(19)--17--17--------------------------------|
|--------------------------------------16b(18)--14--16--14--16b(18)--|
|--------------------------------------------------------------------|
|--------------------------------------------------------------------|
|--------------------------------------------------------------------|



|------19b(21)rb(19)--19--16-----------------------------------|
|--17-------------------------17------17/19--19p17--17/14------|
|---------------------------------16---------------------------|
|--------------------------------------------------------------|
|--------------------------------------------------------------|
|--------------------------------------------------------------|


solo 3 (4:26 – 4:54) (c/ pouca distorção):

  (base: D7+ A7+ D7+ A7+ D7+ C#m Bm E)
|---------------------------------------|
|-----------7--10--12--10--9--10--9--5--|
|--------7------------------------------|
|-----7---------------------------------|
|--9------------------------------------|
|---------------------------------------|



|------------------------------------|
|--7--9--9b-7--5--7-5/2/5------------|
|-----------------------------4b(6)--|
|------------------------------------|
|------------------------------------|
|------------------------------------|



|---------------------------------------------------------------------|
|---------------------------------------------------------------------|
|--6b(8)--6b(8)--4--2--4b(6)--2--4--2--------4------------------------|
|---------------------------------------6--------4b(6)rb(4)--2--------|
|-------------------------------------------------------------------4-|
|----------------------------------------------------------------0--2-|


Verso 2:
(mesma progressão do Verso 1)
(distorção)
and you run and you run to catch up with the sun, but it's sinking
and racing around to come up behind you again
the sun is the same in the relative way, but you're older
and shorter of breath and one day closer to death

(som limpo)
every year is getting shorter
never seem to find the time
plans that either come to naught
or half a page of scribbed lines
hanging on a quiet desperation
is the english way
the time is gone, the song is over
thought i'd something more to say...

começa "Breathe Reprise”

códigos:
/  - slide up
\  - slide down
~  - vibrato
h  – hammer on
p  – pull off
b  – bend
rb – release bend
t  - trill
x  - mute note
() - harmonic note

sobre "Time”
durante os versos, David Gilmour usa muitas dissonâncias para dar
aquele efeito único, presente nas músicas do Pink Floyd;
sem a ajuda de um songbook não dá pra tocar a música exatamente
igual à da gravação por isso, abaixo coloquei algumas sugestões
de dissonâncias que podem ser improvisadas na música:


   F#m            A              E            F#m
|--2---0---0----0--0--0--0----------------------|
|--2---2---2----2--3--3--2-----0--3--0----------|
|--2---2---2----2--2--2--2-----1--1--1----------|
|--4------------2--2--2--2-----2--2--2-------4--|
|--4------------0--0--0--0-----2-------------4--|
|--2--2--2---------------------0--------0----2--|



|--0--0--------------------------------------|
|--2--0--------------------------------------|
|--2--0----4b(6)--4b(6)rb(4)--2--2-----------|
|-----------------------------------2--2-----|
|--------------------------------------------|
|-----------------------------------------2--|



   F#m                A             E                F#m
|-----2--------2------------------7--9--9--7-----------|
|-----2--------2-----------5------9--10-10-9-----------|
|-----2--------2-------5h6---7----9--9--9--9-----------|
|-----4--------4----7----------------------------------|
|-------------------7----------------------------------|
|--2-----2--2-------5-------------------------0--1--2--|



  D7+
|--2--x--x--x--x---x--x--2--2--x--x--|
|--2--x--x--x--x---x--x--2--2--x--x--|
|--2--x--x--x--x---x--x--2--2--x--x--|
|--4--x--x--x--x---x--x--4--4--x--x--|
|------------------------------------|
|----------------2-------------------|



  A7+
|--0--0--0--0--0--0--0--|
|--2--0--2--0--2--2--2--|
|--1--2--1--1--1--1--1--|
|--2--2--2--2--2--2--2--|
|--0--0--0--0--0--0--0--|
|-----------------------|



  D7+
|--2--x--x--x--x---x--x--2--2--x--x--|
|--2--x--x--x--x---x--x--2--2--x--x--|
|--2--x--x--x--x---x--x--2--2--x--x--|
|--4--x--x--x--x---x--x--4--4--x--x--|
|------------------------------------|
|----------------2-------------------|



  A7+
|--0--0--0--0--0--0--0--|
|--2--0--2--0--2--2--2--|
|--1--2--1--1--1--1--1--|
|--2--2--2--2--2--2--2--|
|--0--0--0--0--0--0--0--|
|-----------------------|



  D7+
|--2--x--x--x--x---x--x--2--2--x--x--|
|--2--x--x--x--x---x--x--2--2--x--x--|
|--2--x--x--x--x---x--x--2--2--x--x--|
|--4--x--x--x--x---x--x--4--4--x--x--|
|------------------------------------|
|----------------2-------------------|



   C#m   Bm                E
|--4----2-------------------|
|--5----3-------------------|
|--4----2-------------------|
|--6----4----------------2--|
|--4----2----------------2--|
|------------2b(4)rb(2)--0--|

Comentários 26

  • doni.thunder27 doni.thunder27: Postado em 15/11/2014 21:39

    video aula pfvr né pessoal do cifra club

  • freire.maori freire.maori: Postado em 19/09/2014 22:18

    Só eu que acho que tem coisa errada ai?

  • camuh camuh: Postado em 23/08/2014 17:25

    muito boa essa musica! e o melhor, mutio easy!

  • dany.azevedo.587 dany.azevedo.587: Postado em 05/08/2014 18:57

    Meu, a porra do Lepo Lepo tem vídeo aula e a música tem 4 acordes. Sério. Façam uma video-aula de Time porque isso é música de verdade

  • Gabriel Gabriel: Postado em 25/12/2013 11:30

    no A fica bom fazer uma passagem de A4

  • roberth.gabriel.33 roberth.gabriel.33: Postado em 22/10/2013 09:47

    Eu só não entendi o final.

  • Zeca Zeca: Postado em 07/09/2013 01:50

    O solo com percepção você acaba corrigindo, ótima cifra!

  • Germano Germano: Postado em 10/07/2013 10:55

    o solo não está totalmente certo, mas é só seguir isso, automaticamente você vai perceber o erro e vai corrigir.

  • princessdie princessdie: Postado em 06/07/2013 01:09

    digna de vídeo-aula!!!

  • marciel.sl marciel.sl: Postado em 24/12/2012 13:02

    acho válido uma vídeo aula hein!!! =)

Exibindo 10 de 26 comentários Mostrar mais ver todos »
Composição: David Gilmour / Fredrik Nilsson / João Bosco / Martin Terefe / Michael C.Starr / Nick Mason / Ralph Rieker / Raul Seixas / Richard Wright / Roger Waters / Simone Rossi
Esse não é o compositor? Avise-nos.
Contribuição: leonardo.capnaone Correções: ricardsson80 »
Exibir acordes »
publicidade
fechar