Pink Floyd

Time

323.104 exibições
Tom: A
Intro (0:54 – 2:28) (c/ pouca distorção):

E|-----------------------------------------|
B|-----------------------------------------|
G|-----------------------------------------|
D|-----------------------------------------|
A|-----------------------------------------|
E|--0----2----0----2----0----0h1--2----0---|



E|--------------------------|
B|--------------------------|
G|--------------------------|
D|------------------2-------|
A|-------------2h4----------|
E|--0h1--2-------------2----|



E|--------------------------------------------|
B|---------------------------------------------|
G|---------------------------------------------|
D|---------------------------------------------|
A|-------0-------------------------------------|
E|--2---------2b4-2---0----0h1--2----2---------|


Verso 1: (distorção)

F#m                                      A
ticking away the moments that make up a dull day
     E                                         F#m
you fritter and waste the hours in an off hand way
F#m                                         A
kicking around on a piece of ground in your home town
E                                                F#m
waiting for someone or something to show you the way

(som limpo)
D7+
tired of lying in the sunshine
A7+
staying home to watch the rain
D7+
you are young and life is long
    A7+
and there is time to kill today
D7+
and then one day you find
C#m
ten years have got behind you
Bm
no one told you when to run
E
you missed the starting gun

Solo 1 (3:28 – 3:56) (c/ distorção):

Base: F#m  A  E  F#m  F#m  A  E  F#m


E|-------------------------------------5-------------|  
B|---------------------------------5-7---7p5---------|  
G|-----4b6-4b6r4p2-4b6-4-------4/6-----------6---4b6-|  
D|-2/4-------------------4b5-4-----------------4-----|  
A|---------------------------------------------------|  
E|---------------------------------------------------|  



E|-----9-9b10r9--------------------------|  
B|--------------10b12-10-9-9b10r9--------|  
G|-4/9----------------------------9b11r9-|  
D|---------------------------------------|  
A|---------------------------------------|  
E|---------------------------------------|  

2º Parte do Solo:                                    

E|-----------------17-------------------------------------------|  
B|---------14-17b19---17b19r17-17-17-------14b15r14-14-16p14-16-|  
G|------14---------------------------16b18----------------------|  
D|-9/16---------------------------------------------------------|  
A|--------------------------------------------------------------|  
E|--------------------------------------------------------------|  



E|-17-17-------------------|  
B|-17-17-------------------|  
G|-------16b18r16-16b18----|  
D|----------------------16-|  
A|-------------------------|  
E|-------------------------|  



E|----17B19-17-------------------------------------|  
B|-14----------17B19-17-17-------------------------|  
G|-------------------------16b18p14-16b18p14-16b18-|  
D|-------------------------------------------------|  
A|-------------------------------------------------|  
E|-------------------------------------------------|  



E|-19b21r19-19b21r19p17-19--16----------14-14-------------------|  
B|----------------------------17----17-------17-17-17\14--14-14-|  
G|-------------------------------16-----------------------------|  
D|--------------------------------------------------------------|  
A|--------------------------------------------------------------|  
E|--------------------------------------------------------------|  

 

E|-----------------------------------------------------------|  
B|-------7-10/12-10-9/10-9\5-5-7-9-9-7\5-7-------------------|  
G|-----6-----------------------------------9\6-9-6-4b6-6b7-6-|  
D|-4-7-------------------------------------------------------|  
A|-----------------------------------------------------------|  
E|-----------------------------------------------------------|  



E|----------------------------|  
B|----------------------------|  
G|-4\2-4b6r4-2-4-2-----4------|  
D|-----------------4/6---6\---|  
A|----------------------------|  
E|--------------------------0-|  


Verso 2:

(mesma progressão do Verso 1)
(distorção)
and you run and you run to catch up with the sun, but it's sinking
and racing around to come up behind you again
the sun is the same in the relative way, but you're older
and shorter of breath and one day closer to death

(som limpo)
every year is getting shorter
never seem to find the time
plans that either come to naught
or half a page of scribbed lines
hanging on a quiet desperation
is the english way
the time is gone, the song is over
thought i'd something more to say...


    F#m            A              E            F#m
E|--2---0---0----0--0--0--0----------------------|
B|--2---2---2----2--3--3--2-----0--3--0----------|
G|--2---2---2----2--2--2--2-----1--1--1----------|
D|--4------------2--2--2--2-----2--2--2-------4--|
A|--4------------0--0--0--0-----2-------------4--|
E|--2--2--2---------------------0--------0----2--|



E|--0--0--------------------------------------|
B|--2--0--------------------------------------|
G|--2--0----4b(6)--4b(6)rb(4)--2--2-----------|
D|-----------------------------------2--2-----|
A|--------------------------------------------|
E|-----------------------------------------2--|



    F#m                A             E                F#m
E|-----2--------2------------------7--9--9--7-----------|
B|-----2--------2-----------5------9--10-10-9-----------|
G|-----2--------2-------5h6---7----9--9--9--9-----------|
D|-----4--------4----7----------------------------------|
A|-------------------7----------------------------------|
E|--2-----2--2-------5-------------------------0--1--2--|



   D7+
E|--2--x--x--x--x---x--x--2--2--x--x--|
B|--2--x--x--x--x---x--x--2--2--x--x--|
G|--2--x--x--x--x---x--x--2--2--x--x--|
D|--4--x--x--x--x---x--x--4--4--x--x--|
A|------------------------------------|
E|----------------2-------------------|



   A7+
E|--0--0--0--0--0--0--0--|
B|--2--0--2--0--2--2--2--|
G|--1--2--1--1--1--1--1--|
D|--2--2--2--2--2--2--2--|
A|--0--0--0--0--0--0--0--|
E|-----------------------|



   D7+
E|--2--x--x--x--x---x--x--2--2--x--x--|
B|--2--x--x--x--x---x--x--2--2--x--x--|
G|--2--x--x--x--x---x--x--2--2--x--x--|
D|--4--x--x--x--x---x--x--4--4--x--x--|
A|------------------------------------|
E|----------------2-------------------|



   A7+
E|--0--0--0--0--0--0--0--|
B|--2--0--2--0--2--2--2--|
G|--1--2--1--1--1--1--1--|
D|--2--2--2--2--2--2--2--|
A|--0--0--0--0--0--0--0--|
E|-----------------------|



   D7+
E|--2--x--x--x--x---x--x--2--2--x--x--|
B|--2--x--x--x--x---x--x--2--2--x--x--|
G|--2--x--x--x--x---x--x--2--2--x--x--|
D|--4--x--x--x--x---x--x--4--4--x--x--|
A|------------------------------------|
E|----------------2-------------------|



    C#m   Bm                E
E|--4----2-------------------|
B|--5----3-------------------|
G|--4----2-------------------|
D|--6----4----------------2--|
A|--4----2----------------2--|
E|------------2b(4)rb(2)--0--|
    Composição: David Gilmour / Nick Mason / Richard Wright / Roger WatersColaboração e revisão:
    • Luhemorragia
    • leonardo.capnaone
    • ricardsson80

    Comentários 28

    • Miguel Miguel: Postado em 20/05/2015 20:36

      Está faltando o último verso, e algumas partes estão sem os acordes correspondestes.

    • paulozoche paulozoche: Postado em 28/01/2015 14:09

      Galera, se está errado o solo tem a opção corrigir. É só editar e pronto.

    • doni.thunder27 doni.thunder27: Postado em 15/11/2014 21:39

      video aula pfvr né pessoal do cifra club

    • freire.maori freire.maori: Postado em 19/09/2014 22:18

      Só eu que acho que tem coisa errada ai?

    • camuh camuh: Postado em 23/08/2014 17:25

      muito boa essa musica! e o melhor, mutio easy!

    • dany.azevedo.587 dany.azevedo.587: Postado em 05/08/2014 18:57

      Meu, a porra do Lepo Lepo tem vídeo aula e a música tem 4 acordes. Sério. Façam uma video-aula de Time porque isso é música de verdade

    • Gabriel Gabriel: Postado em 25/12/2013 11:30

      no A fica bom fazer uma passagem de A4

    • roberth.gabriel.33 roberth.gabriel.33: Postado em 22/10/2013 09:47

      Eu só não entendi o final.

    • Zeca Zeca: Postado em 07/09/2013 01:50

      O solo com percepção você acaba corrigindo, ótima cifra!

    • Germano Germano: Postado em 10/07/2013 10:55

      o solo não está totalmente certo, mas é só seguir isso, automaticamente você vai perceber o erro e vai corrigir.

    Exibindo 10 de 28 comentários Mostrar mais ver todos »
    0:00 / 0:00

    Capítulos

      1 versão de baixoexibiçõescontribuição e correção
      1 versão de bateriaexibiçõescontribuição e correção
      2 versões de Guitar Proformatodownloadscontribuição
      play/pausefechar subir/descer velocidade
      6ª corda E5ª corda A4ª corda D3ª corda G2ª corda B1ª corda E
        acordes
        publicidad
        fechar
        ok