Pirates Of The Caribbean Fighting Theme

Piratas do Caribe

 Piratas do Caribe
Tom: D
		
(intro)


E|------------------------0-1-1-1-3-0-0--------|
B|--------------0-2-2-2-----------------2-0-2--|
G|--------2--2---------------------------------| (2X)
D|--------0------------------------------------|
A|-5(8X)---------------------------------------|
E|---------------------------------------------|


(1 Tema)(2x)

E|------------------------5-6-6---5---5-------|
B|-------------6--8-8-8-------------8---------|
G|---5-7-7-7----------------------------7-----|
D|-7------------------------------------------|
A|--------------------------------------------|
E|--------------------------------------------|



E|--------------5-----------------|-----------|
B|----5-6-6--8------------6--5-5--|-6----5----|
G|-7---------------7---7----------|---7-------|
D|--------------------------------|-----------|
A|--------------------------------|-----------|
E|--------------------------------|-----------|

(2 Tema)

E|---------|---------------5-------|
B|---------|------5-6-6-8-----6----|
G|--7-5-7--|-/7------------------7-|
D|---------|-----------------------|
A|---------|-----------------------|
E|---------|-----------------------|


(3 Tema)

E|--6----------------------------------|
B|----6-----------------10-10-10-11-10-|
G|--------------7--10---10-10-10-10-10-|
D|-------9-/-7-------------------------|
A|-------------------------------------|
E|-------------------------------------|



E|-----------------------------------------|
B|-8-8-8-8-10----10-10-10-11-10-6/8-6-5----|
G|-9-9-9-9-9-----10-10-10-10-10-7/9-7-6--7~|
D|-----------------------------------------|
A|-----------------------------------------|
E|-----------------------------------------|


(4 Tema)

E|----------------------------------------|
B|--------------10-----------------10-----|
G|-----9-10-12------12-10-9-10-12-----12--|
D|-12-------------------------------------|
A|----------------------------------------|
E|----------------------------------------|



E|--------------------------------------|
B|-------10-----------------------------|
G|-10-12----12-10---9/10/9---7-9---5-7--|
D|--------------------------------------|
A|--------------------------------------|
E|--------------------------------------|



E|----------------------------------|
B|--------------8----8-10-8---------|
G|-7-9-10--9-10---10--------10---7--|
D|----------------------------------|
A|----------------------------------|
E|----------------------------------|



E|---------------------------------|
B|---------8--10--10/11---8----8---|
G|-7-9-10---------------7---10---9-|
D|---------------------------------|
A|---------------------------------|
E|---------------------------------|


(5 Tema)

E|-------|----------------------------------------|
B|-------|-10---11---10-10-11-10---8---6---5-6-5--|
G|-7-9-5-|-10---11---10-10-11-10---9---7---------7|
D|-------|----------------------------------------|
A|-------|----------------------------------------|
E|-------|----------------------------------------|



E|--------5--------6--------5--5-5-8-5--------|
B|------6--------6--------6------------8------|
G|---7---------7--------7---------------------|
D|-7---------7--------7-----------------------|
A|--------------------------------------------|
E|--------------------------------------------|



E|-------------|
B|-8-6-5-6-5---|
G|-9-7-5-----7-|
D|-------------|
A|-------------|
E|-------------|
Texto Colunas
Alterar tom ½ tom ½ tom
afinação acordes na letra esconder tabs mais »
243.151 exibições

Comentários (53)

  • Marcelo Marcelo: Postado em 08/12/2013 13:09

    ta muito errado essa intro ai kkk

  • Victoria Victoria: Postado em 17/08/2013 21:23

    adoro

  • leticia leticia: Postado em 01/08/2013 14:05

    credo quem precisa d video aula..mto facil O.o

  • giovanni.picardi.587 giovanni.picardi.587: Postado em 26/06/2013 07:56

    ate hj essa poha de video aula n saiu!! VIDEO AULAAA CAR$%^&^%O

  • Dyogynyysy Dyogynyysy: Postado em 18/02/2013 13:11

    aff aprendi com 10 inutos facil d nem precisa de video aula pessoal '-'

  • rafinha.s rafinha.s: Postado em 21/11/2012 23:17

    o intro ta errado .....................

  • mofomusic mofomusic: Postado em 04/11/2012 19:27

    quem precisa de vídeo-aula pra isso? '-'

  • fogo41 fogo41: Postado em 18/09/2012 11:56

    video aula

  • ph1096 ph1096: Postado em 10/09/2012 13:35

    watch?v=f_we13vBnBY&feature=youtu.be ve o meu aee gnt ??

  • dede6553 dede6553: Postado em 31/07/2012 18:02

    quais sao os acordes de cada tema

Exibindo 10 de 53 comentários Mostrar mais ver todos »
Composição: Sabe quem é o compositor? Envie pra gente. Contribuição: PHzinhu Correções: emerson113 , cabilo e mais 3 »
  1. Tudo Que Você Quiser - Luan Santana Manteve-se 5.838 exibições
  2. Lepo Lepo - Psirico Manteve-se 4.258 exibições
  3. Mozão - Lucas Lucco Manteve-se 4.092 exibições
  4. Logo Eu - Jorge e Mateus Manteve-se 3.677 exibições
  5. Gaveta - Fernando e Sorocaba Manteve-se 3.251 exibições
  6. Só Os Loucos Sabem - Charlie Brown Jr. Manteve-se 2.945 exibições
  7. Pra Você - Onze:20 Manteve-se 2.783 exibições
  8. Tempo Perdido - Legião Urbana Manteve-se 2.356 exibições
  9. Fui Fiel - Gusttavo Lima Manteve-se 2.236 exibições
  10. Na Linha do Tempo - Victor e Leo Manteve-se 2.111 exibições
  1. Jorge e Mateus- Manteve-se 22.167 exibições
  2. Legião Urbana- Manteve-se 19.327 exibições
  3. Luan Santana- Manteve-se 17.248 exibições
  4. Charlie Brown Jr.- Manteve-se 16.750 exibições
  5. Fernandinho- Manteve-se 14.218 exibições
  6. Thalles Roberto- Manteve-se 10.904 exibições
  7. Católicas- Manteve-se 10.314 exibições
  8. Aline Barros- Manteve-se 10.062 exibições
  9. Victor e Leo- Manteve-se 10.039 exibições
  10. Gusttavo Lima- Manteve-se 9.893 exibições
Exibir acordes »

Cifras e tabs

Fórum Cifra Club

Aprenda

Cifra Club News

Mais Serviços Cifra Club ID

Studio Sol

©1996 - 2014 Cifra Club · o primeiro, maior e mais acessado do Brasil · 329 mil músicas · 5.9 milhões pessoas cadastradas

publicidade
fechar