Equalize

Pitty

 Pitty
Tom: D
		
Introdução

1


E|------------------------------------------|
B|------------3----------3------------------|
G|------0--4----------0----4----------------|
D|-2h4------------2h4-----------------------|
A|------------------------------------------|
E|------------------------------------------|


2

                   D
E|-----------------2------------------------|
B|------------3----3------------------------|
G|------0--4-------2------------------------|
D|-2h4-------------0------------------------|
A|------------------------------------------|
E|------------------------------------------|



Primeira Parte:

    D       D/C#       Bm
As vezes se eu me distraio  
                E
Se eu não me vigio um instante
         F#m                D
Me transporto pra perto de você   
               D/C#    Bm
Já vi que não posso ficar tão solta
               E
Me vem logo aquele cheiro
                F#m
Que passa de você pra mim  
      G       A
Num fluxo perfeito

Em
  Enquanto vc conversa e me beija

Ao mesmo tempo eu vejo
               D
As suas cores no seu olho tão de perto
Em
  Me balanço devagar

Como quando vc me embala 
              G
O ritmo rola fácil
   A              Bm
Parece que foi ensaiado


Segunda Parte:

Bm                        A
  E eu acho que eu gosto mesmo de você
G                   G7
  Bem do jeito que você é


Refrão:

                                 D
E|-------------------------------2----------|
B|-------------------------------3----------|
G|---------------------------7---2----------|
D|-------------------7-7-7h9-----0----------|
A|-----------5-5-7/9------------------------|
E|-3-3-3-5/7--------------------------------|



D     Bm        D     Bm
  Eu vou equalizar você 
D              Bm      A          G
  Numa freqüência que só a gente sabe
D         Bm            D     Bm
  Eu te transformei nessa canção
D        Bm        A      G   D
  Pra poder te gravar em mim 


Repete a Primeira Parte:

  D         D/C#   Bm
Adoro essa sua    cara de sono
               E
E o timbre da sua voz
          F#m                     D
Que fica me dizendo coisas tão malucas
        D/C#    Bm
E que quase me mata de rir
                 E
Quando tenta me convencer
              F#m
Que eu só fiquei aqui
     G             A
Porque nós dois somos iguais
Em
  Até parece que você já tinha

O meu manual de instruções
               D
Porque você decifra os meus sonhos
Em
  Porque você sabe o que eu gosto

E porque quando você me abraça
         G        A
O mundo gira devagar


Terceira Parte:

Em                D                        Em
  E o tempo é só meu e ninguém registra a cena 
                      D                       Bm
  De repente vira um filme todo em câmera lenta


Repete a Segunda Parte:

Bm                        A
  E eu acho que eu gosto mesmo de você
G                   G7
  Bem do jeito que você é


Refrão Final:

1                                  

E|------------------------------------------|
B|------------------------------------------|
G|---------------------------7--------------|
D|-------------------7-7-7h9----------------|
A|-----------5-5-7/9------------------------|
E|-3-3-3-5/7--------------------------------|


2                                  

E|------------------------------------------|
B|------------------------------------------|
G|---------------------------7--------------|
D|-------------------7-7-7h9----------------|
A|-----------5-5-7/9------------------------|
E|-3-3-3-5/7--------------------------------|


3

                                 D
E|-------------------------------2----------|
B|-------------------------------3----------|
G|---------------------------7---2----------|
D|-------------------7-7-7h9-----0----------|
A|-----------5-5-7/9------------------------|
E|-3-3-3-5/7--------------------------------|



D     Bm        D     Bm
  Eu vou equalizar você 
D              Bm      A          G
  Numa freqüência que só a gente sabe
D         Bm            D     Bm
  Eu te transformei nessa canção
D        Bm        A      G
  Pra poder te gravar em mim 

D     Bm        D     Bm
  Eu vou equalizar você 
D              Bm      A          G
  Numa freqüência que só a gente sabe
D         Bm            D     Bm
  Eu te transformei nessa canção
D        Bm        A      G   D
  Pra poder te gravar em mim

Comentários 85

  • David Rodrigues de oliveira David Rodrigues de oliveira: Postado em 14/11/2014 09:29

    musica foda d +

  • Thaís Thaís: Postado em 12/11/2014 21:08

    Muito fodinha o término do refrão!!! Boa música ^^

  • Liana Liana: Postado em 08/11/2014 01:25

    Maaaaaassa.... Já tava
    mais do que na hora de fazer uma aula dessa musica tão, tão, tão... sem explicação! Parabéns CifraClub!

  • willian.bueno.1612 willian.bueno.1612: Postado em 05/11/2014 21:18

    ótima vídeo fofão mas por favor facam vídeo-aula de "sete vidas".

  • gabrielwxz gabrielwxz: Postado em 05/11/2014 18:30

    Brigadoooo Eu pedi essa musica tbm !

  • Luiz Luiz: Postado em 05/11/2014 15:13

    aleluiaaaaaa

  • Baccas Baccas: Postado em 05/11/2014 14:16

    Fraca essa video aula, ta faltando coisa !

  • lique.music lique.music: Postado em 29/10/2014 01:01

    No riff da introdução parece que tá faltando alguma coisa em relação ao ré (D)

    • camuh camuh: Postado em 04/11/2014 22:52

      Comentário removido

Exibindo 10 de 85 comentários Mostrar mais ver todos »
Composição: André Mingau / Anthony Scott / Pitty
Esse não é o compositor? Avise-nos.
Contribuição: Slash Correções: xisbilofo , Zorro e mais 8 »
Exibir acordes »
publicidade
fechar