Na Sua Estante

Pitty

 Pitty
Tom: D
		
Essa versão é do disco ao vivo!!O {Des}Concerto!!!

Introdução(Abafado heim galera)

         D
e|-----------------------------------------------------------------|
B|-----------------------------------------------------------------|
G|-----------------------------------------------------------------|
D|-----------------------------------------------------------------|
A|--000-000-000---000-000-000--222-222---5-5-5/-----11-11-11-12-12/|
D|--000-000-000---000-000-000--000-000-----------------------------|




e|-----------------------------------------------------------------|
B|-----------------------------------------------------------------|
G|-----------------------------------------------------------------|
D|-----------------------------------------------------------------|
A|-5-5/--9-9-9-9-9-9-9-9-9/--000--000-000-000-5-5/-11-11-11-12-12/-|
D|---------------------------000--000-000-000----------------------|

    

       D                                                                         Bm
e|-----------------------------------------------------------------|
B|-----------------------------------------------------------------|
G|-----------------------------------------------------------------|
D|-----------------------------------------------------------------|
A|--000-000-000---000-000-000--000-000---222-222-222-222-222-222---|
D|--000-000-000---000-000-000--000-000---000-000-000-000-000-000---|

 Te vejo errando e isso não é pecado   Exceto quando faz outra pessoa sangrar

   D                                     Bm
e|-----------------------------------------------------------------|
B|-----------------------------------------------------------------|
G|-----------------------------------------------------------------|
D|-----------------------------------------------------------------|
A|--000-000-000---000-000-000--000-000---222-222-222-222-222-222---|
D|--000-000-000---000-000-000--000-000---000-000-000-000-000-000---|


Te vejo sonhando e isso dá medo          Perdido num mundo que não dá pra entrar

   D                                     Bm
e|-----------------------------------------------------------------|
B|-----------------------------------------------------------------|
G|-----------------------------------------------------------------|
D|-----------------------------------------------------------------|
A|--000-000-000---000-000-000--000-000---222-222-222-222-222-222---|
D|--000-000-000---000-000-000--000-000---000-000-000-000-000-000---|


Você está saindo da minha vida           E parece que vai demorar

   D                                     Bm
e|-----------------------------------------------------------------|
B|-----------------------------------------------------------------|
G|-----------------------------------------------------------------|
D|-----------------------------------------------------------------|
A|--000-000-000---000-000-000--000-000---222-222-222-222-222-222---|
D|--000-000-000---000-000-000--000-000---000-000-000-000-000-000---| 

Se não souber voltar ao menos mande notícias' Cê acha que eu sou louca
Mas tudo vai se encaixar
  
*Essa parte é abafada no começo ai depois pode soltar... =D

     A
e|-----------------------------------------------------------------|
B|-----------------------------------------------------------------|
G|---------------------------999-999-999-999-999-999---------------|
D|---------------------------777-777-777-777-777-777---------------|
A|---777-777-777-777-777-777---------------------------------------|
D|---777-777-777-777-777-777---------------------------------------| 


Tô aproveitando cada segundo
Antes que isso aqui vire uma tragédia

*Nessa parte as notas são G/ A/ e B Massssssssssss o Martin gosta de usar essas notas na fôrma de ré... Então ele faz assim oh:

    G                   A
e|-------------------------------------------|
B|--8------------------10--------------------|
G|--7-------------------9--------------------|
D|--5-------------------7--------------------|
A|--5-------------------7--------------------|
D|--5-------------------7--------------------|

E não adianta nem me procurar

    D        D/C#       Bm
e|-------------------------------------------|
B|-------------------------------------------|
G|-------------------------------------------|
D|--77777777-77777--44444444-----------------|
A|--55555555-44444--22222222-----------------|
D|-------------------------------------------|

Em outros timbres, outros risos.

    G                   A
e|-------------------------------------------|
B|--8------------------10--------------------|
G|--7-------------------9--------------------|
D|--5-------------------7--------------------|
A|--5-------------------7--------------------|
D|--5-------------------7--------------------| 

Eu estava aqui o tempo todo


e|--------------------------------------------|
B|-----------------5---8---7------------------|
G|-------7---7-5---------------6---7~~--------|
D|---------7-----7---7---7---7---7------------|
A|--------------------------------------------|
D|--------------------------------------------|

Só você não viu


    G                   A 
e|-------------------------------------------|
B|--8------------------10--------------------|
G|--7-------------------9--------------------|
D|--5-------------------7--------------------|
A|--5-------------------7--------------------|
D|--5-------------------7---------------------| 

E não adianta nem me procurar


    D        D/C#       Bm
e|-------------------------------------------|
B|-------------------------------------------|
G|-------------------------------------------|
D|--77777777-77777--44444444-----------------|
A|--55555555-44444--22222222-----------------|
D|-------------------------------------------|

Em outros timbres, outros risos.

    G                   A 
e|-------------------------------------------|
B|--8------------------10--------------------|
G|--7-------------------9--------------------|
D|--5-------------------7--------------------|
A|--5-------------------7--------------------|
D|--5-------------------7--------------------| 

Eu estava aqui o tempo todo

     B (Abafado)
e|-----------------------------------------|
B|-----------------------------------------|
G|-----------------------------------------|
D|---444444--------------------------------|
A|---222222--------------------------------|
D|-----------------------------------------| 

Só você não viu

PASSAGEM


    G                   A 
e|------------------------------------------------|
B|--8------------------10-------------------------|
G|--7-------------------9-------------------------|
D|--5-------------------7-------------4444444-----|
A|--5-------------------7-------------2222222-----|
D|--5-------------------7-------------------------|



e|-----------------------------------------------------------------|
B|-----------------------------------------------------------------|
G|-----------------------------------------------------------------|
D|-----------------------------------------------------------------|
A|--000-000-000---000-000-000--000-000---222-222-222-222-222-222---|
D|--000-000-000---000-000-000--000-000---000-000-000-000-000-000---|

Você tá sempre indo e vindo, tudo bem.   Dessa vez eu já vesti a minha armadura


e|-----------------------------------------------------------------|
B|-----------------------------------------------------------------|
G|-----------------------------------------------------------------|
D|-----------------------------------------------------------------|
A|--000-000-000---000-000-000--000-000---222-222-222-222-222-222---|
D|--000-000-000---000-000-000--000-000---000-000-000-000-000-000---|

E mesmo que nada funcione               Eu estarei de pé, de queixo erguido.


e|-----------------------------------------------------------------|
B|-----------------------------------------------------------------|
G|-----------------------------------------------------------------|
D|-----------------------------------------------------------------|
A|--000-000-000---000-000-000--000-000---222-222-222-222-222-222---|
D|--000-000-000---000-000-000--000-000---000-000-000-000-000-000---|

Depois você me vê vermelha e acha graça   Mas eu não ficaria bem na sua estante


     A
e|-----------------------------------------------------------------|
B|-----------------------------------------------------------------|
G|---------------------------999-999-999-999-999-999---------------|
D|---------------------------777-777-777-777-777-777---------------|
A|---777-777-777-777-777-777---------------------------------------|
D|---777-777-777-777-777-777---------------------------------------|

Tô aproveitando cada segundo Antes que isso aqui vire uma tragédia


    G                   A 
e|-------------------------------------------|
B|--8------------------10--------------------|
G|--7-------------------9--------------------|
D|--5-------------------7--------------------|
A|--5-------------------7--------------------|
D|--5-------------------7--------------------| 

E não adianta nem me procurar


    D        D/C#       Bm
e|-------------------------------------------|
B|-------------------------------------------|
G|-------------------------------------------|
D|--77777777-77777--44444444-----------------|
A|--55555555-44444--22222222-----------------|
D|-------------------------------------------|

Em outros timbres, outros risos.


    G                   A 
e|-------------------------------------------|
B|--8------------------10--------------------|
G|--7-------------------9--------------------|
D|--5-------------------7--------------------|
A|--5-------------------7--------------------|
D|--5-------------------7---------------------| 

Eu estava aqui o tempo todo


e|--------------------------------------------|
B|-----------------5---8---7------------------|
G|-------7---7-5---------------6---7~~--------|
D|---------7-----7---7---7---7---7------------|
A|--------------------------------------------|
D|--------------------------------------------|

Só você não viu


    G                   A 
e|-------------------------------------------|
B|--8------------------10--------------------|
G|--7-------------------9--------------------|
D|--5-------------------7--------------------|
A|--5-------------------7--------------------|
D|--5-------------------7---------------------| 

E não adianta nem me procurar


    D        D/C#       Bm
e|-------------------------------------------|
B|-------------------------------------------|
G|-------------------------------------------|
D|--77777777-77777--44444444-----------------|
A|--55555555-44444--22222222-----------------|
D|-------------------------------------------|

Em outros timbres, outros risos.
    G                   A 


e|-------------------------------------------|
B|--8------------------10--------------------|
G|--7-------------------9--------------------|
D|--5-------------------7--------------------|
A|--5-------------------7--------------------|
D|--5-------------------7--------------------| 

Eu estava aqui o tempo todo


     B (Abafado)
e|-----------------------------------------|
B|-----------------------------------------|
G|-----------------------------------------|
D|---444444--------------------------------|
A|---222222--------------------------------|
D|-----------------------------------------| 

...você não viu


    G               A       Bm       C#  D     E
e|------------------------------------------------------|
B|--8--------------10-----------------------------------|
G|--7---------------9----------------666-777---9999-----|
D|--5---------------7-------444444----------------------|
A|--5---------------7-------222222---444-555---7777-----|
D|--5---------------7-----------------------------------|

Só por hoje não quero mais te ver


    G               A              Bm        D
e|-------------------------------------------------------------|
B|--8--------------10------------------------------------------|
G|--7---------------9------------------------777--777----------|
D|--5---------------7--------------444444----------------------|
A|--5---------------7--------------222222----555--555----------|
D|--5---------------7------------------------------------------|

Só por hoje não vou tomar a minha dose de você


    G               A              Bm
e|-------------------------------------------------------------|
B|--8--------------10------------------------------------------|
G|--7---------------9------------------------------------------|
D|--5---------------7--------------444444----444444------------|
A|--5---------------7--------------222222----222222------------|
D|--5---------------7------------------------------------------|

Cansei de chorar feridas que não se fecham, não se curam/ Não


    G               A              Bm
e|--------------------------------------------------------------|
B|--8--------------10-------------------------------------------|
G|--7---------------9-------------------------------------------|
D|--5---------------7--------------444444----444444----4--------|
A|--5---------------7--------------222222----222222----2--------|
D|--5---------------7-------------------------------------------|

E essa abstinência uma hora vai passar
Texto Colunas
Alterar tom ½ tom ½ tom
afinação acordes na letra esconder tabs mais »

Comentários 4

  • heloisa.braga.509 heloisa.braga.509: Postado em 19/01/2014 02:22

    Cara eu não sei tocar assim eu sou iniciante,esse site ta uma merda total

  • Karol Karol: Postado em 09/01/2014 19:18

    q bosta vei ^^

Composição: André Mingau / Anthony Scott / Pitty
Esse não é o compositor? Avise-nos.
Contribuição: Galhá Correções: julião e mais 2 »
  1. Domingo de Manhã - Marcos e Belutti Manteve-se 96.264 exibições
  2. Até Você Voltar - Henrique e Juliano Manteve-se 55.457 exibições
  3. Pra Você - Onze:20 Manteve-se 48.991 exibições
  4. Recaídas - Henrique e Juliano Manteve-se 41.756 exibições
  5. Logo Eu - Jorge e Mateus Manteve-se 40.010 exibições
  6. Evidências - Chitãozinho & Xororó Manteve-se 35.919 exibições
  7. Só Os Loucos Sabem - Charlie Brown Jr. Manteve-se 31.813 exibições
  8. Cuida Bem Dela - Henrique e Juliano Manteve-se 31.163 exibições
  9. Pais e Filhos - Legião Urbana Manteve-se 29.531 exibições
  10. Give Me Love - Ed Sheeran Manteve-se 29.506 exibições
  1. Jorge e Mateus- Manteve-se 251.571 exibições
  2. Legião Urbana- Manteve-se 211.240 exibições
  3. Henrique e Juliano- Manteve-se 192.369 exibições
  4. Charlie Brown Jr.- Manteve-se 151.943 exibições
  5. Bruno e Marrone- Manteve-se 133.779 exibições
  6. Fernandinho- Manteve-se 118.729 exibições
  7. Marcos e Belutti- Manteve-se 117.826 exibições
  8. Luan Santana- Manteve-se 111.298 exibições
  9. Thalles Roberto- Manteve-se 93.703 exibições
  10. Victor e Leo- Manteve-se 91.274 exibições
Exibir acordes »

Cifras e tabs

Fórum Cifra Club

Aprenda

Cifra Club News

Mais Serviços Cifra Club ID

Studio Sol

©1996 - 2014 Cifra Club · o primeiro, maior e mais acessado do Brasil · 338 mil músicas · 6.2 milhões pessoas cadastradas

publicidade
fechar