Teto De Vidro

Pitty

 Pitty
Tom: E
		
Intro:
G1
   C#m, A, B (4x)


G2



E|------19---16--------19^21---19---16---19---16-------------------------|
B|-17-------------17-----------------------------17b--17---16--17--19----|
G|--------------------------------------------------------------------18-|
D|-----------------------------------------------------------------------|
A|-----------------------------------------------------------------------|
E|-----------------------------------------------------------------------|





E|--------------------------------------------------------|
B|--------------------------------------------------------|
G|----------6-------------6--------------6--------------6-|
D|----------6-------------6--------------6--------------6-|
A|--4-3-4-4-4---3-4-3-4-4-4----3-4-3-4-4-4----3-4-3-4-4-4-|
E|--------------------------------------------------------|




_Refrão:

G1
          C#m                                       A   B
 Quem não tem teto de vidro que atire a primeira pedraaaaa  (4x)


G2


   C#m A    B    C#m  A    B
E|----19-------------21---19--|  (2x)
B|--------21b-----------------|
G|-----------------------------|
D|-----------------------------|
A|-----------------------------|
E|-----------------------------|




_Verso:

G1

 C#m (C#m)                           A  (A)
 Andei por tantas ruas e lugares, Passei observando quase tudo
 C#m (C#m)                           A  (A) <--   (fica sem tocar depois dessa nota)
 Mudei o mundo, gira num segundo, Busquei dentro de mim os meus lares
 E aí, tantas pessoas querendo sentir, Sangue correndo na veia
 É bom assim, se movimenta está vivo, Ouvi milhões de vozes gritando...


G2



E|--------------------------------------------------------------|
B|--------------------------------------------------------------|
G|--6-6----------------------------2-2--------------------------|
D|--6-6--6-6-6-6-4-4-4-4-----------2-2--2-2-2-2-1-1-1-1---------|
A|--4-4------------------6-6-6-6---0-0------------------2-2-2-2-|
E|--------------------------------------------------------------|


  Andei por tantas ruas e lugares, Passei observando quase tudo



E|--------------------------------------------------------------|
B|--------------------------------------------------------------|
G|--6-6------------------4-6-4-----2-2--------------------------|
D|--6-6--6-6-6-6-4-4-4-4-------6---2-2--2-2-2-2-1-1-------------|
A|--4-4----------------------------0-0---------------2^4^2~~----|
E|--------------------------------------------------------------|


  Mudei o mundo, gira num segundo, Busquei dentro de mim os meus lares



E|----------------------------------------|-----------------------------------------|
B|----------------------------------------|-----------------------------------------|
G|----------------------------------------|-------------------------------4-------5-|
D|-2-2-2-4-4-4-5-4-4-2-4--1-1-1-----------|-2-2-2-4-4-4-5-4-4-2-4-------4-------4---|
A|------------------------------3-3-3-----|-----------------------2-2-2---3-3-3-----|
E|------------------------------------4~~-|-----------------------------------------|


  E aí, tantas pessoas querendo sentir,    | É bom assim, se movimenta está vivo,


Sangue correndo na veia                  | Ouvi milhões de vozes gritando...






_Pós-Verso(pode ser usado guitarra limpa com um pouco de chorus e tremolo)





     C#m      B       A       B       C#m      B       A       B
E|------------------------------------------------------------------|
B|------------------------------------------------------------------|
G|------6-------4-------2-------4-------6-------4-------2-------4---|
D|----6---6---4---4---2---2---4---4---6---6---4---4---2---2---4---4-|
A|--4-------2-------0-------2-------4-------2-------0-------2-------|
E|------------------------------------------------------------------|


  Eu quero ver quem é capaz, De fechar os olhos e descansar em paz


_Pré-Chorus : G1 + G2

      C#m, A (2x)


__Repete: _Refrão, _Verso, _Pós-Verso


_Pré-Refrão 2: G1 + G2

      C#m, A (4x)


_Último Refrão:

G1
          C#m                                       A   B
 Quem não tem teto de vidro que atire a primeira pedraaaaa  (3x)

          C#m                                         A  B
 Quem não tem teto de vidro que atire a primeira pedraaaaa


G2

   C#m  A    B   C#m   A    B    C#m   A    B   C#m   A      (C#m) <-- Da parte _Final
E|----19------------21---19-------19------------21-------------------|
B|--------21b--------------------------21b----------17--19b----------|
G|-------------------------------------------------------------18~~~-|
D|-------------------------------------------------------------------|
A|-------------------------------------------------------------------|
E|-------------------------------------------------------------------|



_Final: G1 ou G1 + G2

 C#m
 Na frente está o alvo que se arrisca pela linha
 E
 Não é tão diferente do que eu já fui um dia
 B
 Se vai ficar, se vai passar, não sei
 A
 E num piscar de olhos, lembro o tanto que falei
 C#m
 deixei, calei e até me importei
 E
 Mas não tem nada, eu tava mesmo errada
 B
 Cada um em seu casulo, em sua direção
 A
 Vendo de camarote a novela da vida alheia
 C#m
 Sugerindo soluções, discutindo relações
 E
 Bem certos que a verdade cabe na palma da mão
 B                                  A
 Mas isso não é uma questão de opinião
 C#m                                E
 Mas isso não é uma questão de opinião
 B                               A
 E isso é só uma questão de opinião

Comentários 12

  • esther.oliveira.3958 esther.oliveira.3958: Postado em 09/11/2013 18:54

    Consegui pegar no violão, ficou legal

  • kimkinho kimkinho: Postado em 09/11/2013 15:07

    Ta muito ruim essa organização , tem que arrumar isso direito

  • vinicius.ramos.96343405 vinicius.ramos.96343405: Postado em 08/07/2013 01:16

    ei, v6 tem o patch dessa musica pra pedaleira zoom g1??

  • matheus58030 matheus58030: Postado em 28/12/2012 23:13

    manoo daora emmm !! ganhei a guitarra semana passada e ja vou tenta essa musica nunca tinha pegado em uma guitarra kkkkk vou la galera fuiii

  • decorpore decorpore: Postado em 17/11/2012 15:07

    C# ou C#m dá na mesma se for tocar em C5, como é na original.

  • dokamg dokamg: Postado em 10/11/2012 11:05

    ritmo?

  • gabrielzampa gabrielzampa: Postado em 15/10/2012 16:32

    eles esqueceram de colocar o c# parta repetir depois da introduçao

  • rafzjesus rafzjesus: Postado em 14/10/2012 22:10

    Rpz..essa música é C#m em vez e C#.

  • doopinho doopinho: Postado em 09/10/2012 15:43

    essa é D++++

Exibindo 10 de 12 comentários Mostrar mais ver todos »
Composição: Andr&eacute; Mingau / Anthony Scott / Pitty
Esse não é o compositor? Avise-nos.
Contribuição: Thays Correções: leandro e mais 1 »
Exibir acordes »
publicidade
fechar