Mande Um Sinal

Grupo Pixote

 Grupo Pixote
Tom: D#
		
Introdução: D#7+  A#m7  D#7/9  G#7+  G#6  G#m6
  

SOLO Intr
              1ºParte                                           2º Parte

e|-11--10----11-10-------------------------------------|-----------------------------------------|
B|--------11-------11-13-13-11-11----------------------|----11-12-11----11-12-11----11-12-11-----|
G|--------------------------------13-13-10-12-10-12----|--13----------13----------13----------12-|
D|---------------------------------------|----------13-|-----------------------------------------|

                                                 
                                                 OU         
 

B|-4-3---4-3------------------------------|-----------------------------------------|
G|-----3-----3--5-5-3-3-------------------|----3-4-3---3-4-3---3-4-3---3-4-3--------|
D|----------------------6-6-4-5-4-5-------|--6-------6-------6-------6-------5------|
A|----------------------------------6-----|-----------------------------------------|



D#7+   G#m6  G#/A#  D#7+
Sonhei contigo... OOOOO...
       G#7+ G#6  B7+
Agora eu sei.. que era você que eu não enxerguei
 Gm7/4
Como num velho ditado eu falhei
 B7+                                G#/A#
Só dei valor quando eu te perdi, vacilei

Fm7    Bb7/9 D#7+
Vem me perdoar
      G#m6 G#/A#  D#7+
Estou perdido.. oooo....
       G#7+ G#6 B7+ 
Meu coração... quer se vingar de tudo que passou
 Gm7/4
Quer maltratar me fazer sofredor
 B7+                                            G#/A#
Não deixa eu pensar em mais nada a não ser esse amor

D#7/4/9    G#7+
Mande um sinal
       G#6                  G#/A#
Da um alo da uma chance pro amor pois eu não tô legal
          Gm7
Mande um sinal
                               Cm7
Se a saudade aumentar vai ser golpe fatal
Am7/4    F/A
Mande um sinal
                            Dm7/4          G7/5+
Eu preciso dizer que a minha vida parou sem você tá um
Cm7/9  A#m7
caos

2ª vez: 
 Dm7/4          G7/5+
Eu preciso dizer que a minha vida parou sem você tá um
Cm7/9  B7+  G#/A#
caos
145.677 exibições

Comentários 1

  • luizhmo luizhmo: Postado em 14/02/2011 18:12

    muito boa essa musica !!!

Composição: André Renato / Felipe Silva
Esse não é o compositor? Avise-nos.
Contribuição: thiagoollivier1 Correções: XandePoeta »
Exibir acordes »
publicidade
fechar