Carnival Of Rust

Poets Of The Fall

 Poets Of The Fall
Tom: D(acordes na forma do tom C#)
Capotraste na 1ª casa		
When playing this great song it would be an advantage to play with
a capo in 1st fret. Listen to the sing to get the real rythm.

s = slide
~ = let ring

Intro/verse:


e|--------3-----3/4\3---------3-----3/4\3---------3-----3/4\3--------------3---3---|
h|-----6----6--------6-----6----6--------6-----6----6--------6------6--------6-----|
g|---5--5-----5----------5--5-----5----------5--5-----5-----------5--5---5-------5-|
d|-3-------------------6-----------------------------------------------------------|
a|-----------------------------------------1--------------------4------6-----------|
E|---------------------------------------------------------------------------------|



e|--------3-----3/4\3---------3-----3/4\3---------3-----3/4\3--------------3---3---|
h|-----6----6--------6-----6----6--------6-----6----6--------6------6--------6-----|
g|---5--5-----5----------5--5-----5----------5--5-----5-----------5--5---5-------5-|
d|-3-------------------6-----------------------------------------------------------|
a|-----------------------------------------1--------------------4------3-----------|
E|---------------------------------------------------------------------------------|


Between first chorus and second verse, play the first line once and then start over.


Chorus + Don't walk away part (overdrive):


e|-1~----3~----6~----4--3-|
h|-1~----3~----6~----4--3-|
g|-1~----3~----6~----4--3-|
d|-3~----5~----8~----6--5-|
a|-3~----5~----8~----6--5-|
E|-1~----3~----6~----4--3-|


The accoustic guitar plays the same chords.

Please feel free to comment (and rate...)

Comentários 1

Composição: João Gustavo / Walter Spriggs
Esse não é o compositor? Avise-nos.
Contribuição: upthefrequency
Exibir acordes »
publicidade
fechar