Lembranças

Porca Véia

 Porca Véia
Tom: F
		
Intro: F  C  Bb  C  F


E|----10-10----10-10-----10-8------|
B|-10-------10-------10------------|
G|---------------------------------|
D|---------------------------------|
A|---------------------------------|
E|---------------------------------|



E|---8-8---8-8---------------------|
B|-8-----8------8-10/11~-----------|
G|---------------------------------|
D|---------------------------------|
A|---------------------------------|
E|---------------------------------|



E|---------------------------------|
B|-11-11-11-10-10-10-8----10-8-----|
G|---------------------10----------|
D|---------------------------------|
A|---------------------------------|
E|---------------------------------|



E|---------------------------------|
B|--10-10-10-8-10-11-10-8----------|
G|------------------------10~------|
D|---------------------------------|
A|---------------------------------|
E|---------------------------------|


F                              C
Quando as almas perdidas se encontram
                       F
Machucadas pelo desprazer
    Bb      F                C
Um aceno um riso apenas
                       F
Da vontade da gente viver
                            C
São os velhos mistérios da vida
                         Bb
Rebenquiados pelo dia-a-dia

                           C
Já cansados de tanta tristeza
                          F
Vão em busca de nova alegria (2x)

Solo: F  C  Bb  C  F

F                          C
E ao morrer nesta tarde morena
                           F
Quando o sol despacito se vai
      Bb            F           C
As lembranças tranqueiam com as águas
                        F
Passageiras do rio Uruguai
                          C
E as guitarras eternas cigarras
                             Bb
Entre as flores dos velhos ipês

                            C
Sempre vivas dormidas se acordam
                          F
Na lembrança da primeira vez  (2x)
95.253 exibições

Comentários 7

  • thomasrichter thomasrichter: Postado em 19/07/2013 16:00

    O ritmo é valsa e essa musica é do Telmo de Lima Freitas. o porca veia só gravou em um disco, mas a composição não é dele!!!

  • viniciusdrv viniciusdrv: Postado em 27/05/2013 16:19

    Qual seria o ritmo?

  • johnveryne johnveryne: Postado em 10/02/2012 20:54

    e sao tudo bobao grande esses cara que nao querem fazer video aula

  • johnveryne johnveryne: Postado em 10/02/2012 20:53

    nao tem video aula das nossas musicas porque aqui a porra é sempre seria!

  • lcsdragon lcsdragon: Postado em 31/12/2011 12:37

    Final corrigido!!!

    e|---------------------------------------------|
    B|-10-10-10-8-10-11--10-9-7---------|

  • lcsdragon lcsdragon: Postado em 27/12/2011 19:56

    esse final da cifra ta certo pq nao consegui tocar igual a musica original com ele

  • jaimuller jaimuller: Postado em 05/11/2011 10:11

    pq sera qi nao tem video aula em nenhuma musica nosssa daqi do sul?????

Composição: Telmo de Lima Freitas
Esse não é o compositor? Avise-nos.
Contribuição: José Correções: rogerss , heti_m e mais 9 »
Exibir acordes »
publicidade
fechar