Pouca Vogal

Pouca Vogal

 Pouca Vogal Compositor: Humberto Gessinger
Tom: A
		
Intro: C# E D#m D

C#
Pouca Vogal
E                D#m
Polka tri-legal

Meridional
   D
Na serra, no vale
   C#
Oriundi, alles blau
E
Samba sem know-how
D#m
Pouca vogal
D
Muito micuim
       C#
Tem pingüim no litoral
    E             D#m
Em pleno carnaval

São imigrantes
D                A
Com suas consoantes

                E/G#           Bm
No táxi que me trouxe até aqui
                 C#   A
Cantavam dois irmãos
                E/G#             Bm
Tchau astral estranho deu pra ti
               C# 
Vou pegar o avião

C#
Pouca vogal
E
Clássico grenal
D#m
Swing esquisito
D
Sem favorito
C#             E
Sem nada igual

Nem à pau
D#m
Viva a diferença
D                     C#          E
Chame de schimier a geléia geral

E o escambau
D#m
Pouca Vogal
D        A
Ó o auê aí

               E/G#            Bm
Do táxi que me trouxe até aqui
                  C#   A
Vi o morro dois irmãos
             E/G#            Bm
Chega de saudade vou sentir
                    C#   A
Ouvindo samba do avião

            E/G#            Bm
O táxi que trouxe até aqui
                  C#   A
Passou por Dois Irmãos
                 E/G#              Bm
Tchau astral estranho já cheguei
                    C# 
Já botei os pés no chão


Base do solo:(C# E D#m D)

solo:


E|---------12---9-------------------------------------   
B|------------------12---9----------------------------
G|-------------------------11---11---9---11---9-------  
D|-------------------------------------------------11-
A|----------------------------------------------------
E|----------------------------------------------------


Rápido!


E|----------9-9-9---11-11-11---12-12-12---14-14-14---16-16-16---17-17-17-19-
B|--------------------------------------------------------------------------
G|--------------------------------------------------------------------------
D|--------------------------------------------------------------------------
A|--------------------------------------------------------------------------
E|--------------------------------------------------------------------------


normal 2X


E|--------12---9-------------9---9---9------12---9---------------------------------------
B|-----------------12---9-------------------------------12---9---------------------------
G|---------------------------------------------------------------11---11---9---11--------
D|---------------------------------------------------------------------------------11----
A|---------------------------------------------------------------------------------------
E|---------------------------------------------------------------------------------------



E|-----------------------------------------------------------------------
B|-----------------------------------------------------------------------
G|--------9---11---9-----------------------------------------------------
D|-----11----------11---9---9---11---------------------------------------
A|-------------------------9---------------------------------------------
E|-----------------------------------------------------------------------



E|-----------------------------------------------------------------------
B|-----------------------------------------------------------------------
G|------10---13---15---10------------------------------------------------
D|-----------------------------------------------------------------------
A|-----------------------------------------------------------------------
E|-----------------------------------------------------------------------
34.609 exibições

Comentários 0

Composição: Humberto Gessinger
Esse não é o compositor? Avise-nos.
Contribuição: Leosorialves Correções: Tom e mais 1 »
Exibir acordes »
publicidade
fechar