Vôo do Besouro

Pouca Vogal

 Pouca Vogal Compositor: Humberto Gessinger
Tom: G
		
Dedilhado Intro:

E|-----5---5---------5----5-----------------------0-----0-|
B|---8------------8--------------5------5-------0---------|
G|-------7-------------7-------------4--------------------|
D|-5---------------------------5---------------------2----|
A|------------7--------------4--------------3-------------|
E|--------------------------------------------------------|


Dedilhado Ponte:


E|------5-----5---------------------------------------2-----2-|
B|---8-------------------7---7---------5---------0------0-----|
G|---------7-----------7---7---------5---5---------2------2---|
D|-5-----------------7-------------7-------7------------------|
A|----------------9--------------0-------------2--------------|
E|------------------------------------------------------------|



Dedilhado Refrão:


E|---------3---3----------3---3-----------------------------|
B|-------3---3----------3---3--------8----8---------8---8---|
G|-----2--------------2-------------7---7---------7---7---7-|
D|---2--------------2-------------9-------------9-----------|
A|-0--------------0-------------7-------------7-------------|
E|----------------------------------------------------------|


Repete tudo

(intro 2x) G9 Em7/11 C#m7/5- C7+

G9           Em7/11
fala sério, o que (é) que há
C#m7/5-         C7+
o que falta enxergar
G9        Em7/11
nessa noite de luar
C#m7/5-        C7+
nesse dia devagar
G9         D/F#
fala sério, o que (é) que há
Am          B7
o que falta enxergar

(refrão)
Am             Em7
quem não sabe finge saber
Am           Em7
quando vê o ouro brilhar
Am           Em7
quando vê o couro comer
Am            G9
e o besouro voar

( G9 Em7/11 C#m7/5- C7+ )(2x)

G9          Em7/11
fala sério, o que (é) que tem
C#m7/5-              C7+
quem tem medo de enfrentar
G9          Em7/11
a lembrança sempre vem
C#m7/5-          C7+
numa noite sem luar
G9          D/F#
fala sério, o que (é) que foi
Am            B7
onde a gente foi parar

Refrão:
Am             Em7
quem não sabe finge saber
Am            Em7
quando vê o ouro brilhar
Am            Em7
quando vê o couro comer
Am            G9
e o besouro voar

( G9 Em7/11 C#m7/5- C7+ )(2x)

G9          Em7/11
fala agora onde está
C#m7/5-           C7+
quem está no seu lugar
G9          Em7/11
no espelho na estrada
C#m7/5-        C7+
esperando o inesperado
G9           D/F#
fala sério, o que (é) que há
Am           B7
o que falta enxergar

(refrão)
C9             Em7
quem não sabe finge saber
C9           Em7
quando vê o ouro brilhar
C9
quando vê o couro comer
C9            G9
e o besouro voar

( G9 Em7/11 C#m7/5- C7+ )(2x)
46.546 exibições

Comentários 1

Composição: Humberto Gessinger
Esse não é o compositor? Avise-nos.
Contribuição: Bauerlactu Correções: xxtretaxx e mais 2 »
Exibir acordes »
publicidade
fechar