Darte Un Beso

Prince Royce

 Prince Royce
Tom: E(acordes na forma do tom C)
Capotraste na 4ª casa		

|--0-0-0-----------|--------------------|------------------------|
|-0h1-1-1--3p1-3p1-|---0h1p0------------|---0h1p0----------------|
|------------------|---------2p0--0h2---|---------2p0--0h2-------|
|------------------|-2----------------3-|-3----------------2-----|
|------------------|--------------------|------------------------|
|------------------|--------------------|------------------------|


C             G              Am  F
Amarte como te amo es complicado
C             G                 Am
Pensar como te penso es um pecado


E|-0h1-0-------------------------------------------------------|
B|--------1h3-1------------------------------------------------|
G|-------------------------------------------------------------|
D|-------------------------------------------------------------|
A|-------------------------------------------------------------|
E|-------------------------------------------------------------|


F             G                 Am
Mirar como te miro esta prohibido
F              G                Am
tocarte como quiero es um delito

G
Ya no sé que hacer, para que ester bien
Am                         D
Si apaga el sol para encender tu amanecer
G
Hablar en portugués, aprender a hablar francés
  Am
O bajar la luna hasta tus pies

               F            G
Yo solo quiero darte um beso
           Am
Y regaarte mis mañanas
               F            G
Cantar para calmar tus midos
               Am
Quiero que no te falte nada

              F             G
Yo solo quiero darte um beso
                Am
Llenarte com mi amor el alma
              F             G
Llevarte a conocer el cielo
               Am
Quiero que no te falte nada
6.434 exibições

Comentários 1

  • Gustavo Gustavo: Postado em 29/04/2014 11:48

    musica esta incompleta

Composição: Prince Royce
Esse não é o compositor? Avise-nos.
Contribuição: suuhlovees
Exibir acordes »
publicidade
fechar