Ninguém Tem Culpa

Pull Down

 Pull Down
Tom: F
		
Base sem distorção (3x):

    F - C - D|- A# 
e|------------------|
B|------------------|
G|-10---5---7---3---|
D|--x---x---x---x---|
A|--8---3---5---1---|
E|------------------|


================================================================

REFRÃO (2x)
"..tente compreender"

e|-----1~-----------|
B|-----3~-----------|
G|-----2~-----------|
D|-----0~-----------|
A|------------------|
E|------------------|


"..posso sorrir e te ver feliz"

e|------------------|
B|------------------|
G|-----3------------|
D|-----3------------|
A|-----1------------|
E|------------------|


================================================================

Base (2x)
Refrão (4x) (distorção)

================================================================

FINAL:
"Nem sempre meu sorriso.." (4x - até o final)

e|------------------| 	e acaba em: |-------|
B|------------------|		    |-------|
G|---------3---3----|		    |-------|
D|-3---5---3---3----|		    |---3---|
A|-3---5---1---1----|		    |---3---|
E|-1---3------------|		    |---1---|


================================================================

RESUMO:

Base 	3x
Refrão 	2x
Base 	2x
Refrão	4x
Final	4x

================================================================

Letra: 

Nem tudo está tão bem 
Não posso enganar você 
Estou sempre triste, nem sei por que 
Mas prefiro sorrir 
Do que entristecer alguém 
O problema sou eu, tente compreender 

Mesmo sofrendo 
Com meus mil defeitos 
Tenho que me manter feliz 
Você não tem culpa 
Do meu sofrimento 
Não pense assim, eu sei o que fazer 

Refrão: 
Posso sorrir e te ver feliz 
(Como) Posso sorrir e mentir pra mim 

Ponte: 
Nem sempre meu sorriso é verdadeiro (Não posso enganar você) 
Não tenho culpa desse sentimento (Com meus mil defeitos) 
Pode ter certeza que é meu medo (Ninguém tem culpa) 
De te fazer sofrer com meu jeito (de ser) (O problema sou eu, tente compreender) 


================================================================

..é isso, ou pelo menos era pra ser.
10.641 exibições

Comentários 0

Consegui tocarAinda não conseguiram tocar essa música. Seja o primeiro!
    Não consegui tocar
    Exibir acordes »
    publicidade
    fechar