Tom: D
		
(intro) D Bm G Em A4 A

(1° sequência)


E|15-----14~--------------14-15----------------------------|
b|18b20--17b19~-----15-17-------17b19-15-17b19-17b19r17-15~|
G|--------------s14----------------------------------------|
D|---------------------------------------------------------|
A|---------------------------------------------------------|
E|---------------------------------------------------------|


(2ª sequência)
                       * *

E|--------14-15-------19-19--------------------------------------|
B|---15-17-------17b19-----19r17-17b19r17-15~-17b19r17~----------|
g|s14--------------------------------------------------14s16s14~-|
D|---------------------------------------------------------------|
A|---------------------------------------------------------------|
E|---------------------------------------------------------------|


     G                              A
Meu amor olha só hoje o sol não apareceu
     G                         D
É o fim da aventura humana na Terra
      G                                   A
Meu planeta adeus fugiremos nós dois na arca de Noé
                   G                           D
Mas olha bem, meu amor  o final da odisséia terrestre
            A
Sou Adão e você será...

               D                   D   A/C#    Bm
Minha pequena Eva, o nosso amor na última astronave,
            Bm/A   D/F# G    G D/F# Em
Além do infinito eu vou voar
  Em/D       A
Sozinho com você
               D                   D     A/C#    Bm
E voando bem alto, me abraça pelo espaço de um instante,
                 Bm/A D/F#  G    G D/F# Em
Me cobre com teu corpo e me dá
        A
A força pra viver...

                       Bm                        G
E pelo espaço de um instante   afinal, não há nada mais
      Em                 G
Que o céu azul pra gente voar
                             A
Sobre o Rio, Beirute ou Madagascar
        G                      D
Toda a terra reduzida a nada a nada mais
                    G                               A
E minha vida é um flash de controles, botões anti-atômicos
                        G                           D
Olha bem meu amor no final da odisseia terrestre
            A
Sou Adão e você será... diz pra mim o que você será!

               D                   D   A/C#    Bm
Minha pequena Eva, o nosso amor na última astronave,
            Bm/A   D/F# G    G D/F# Em
Além do infinito eu vou voar
  Em/D       A
Sozinho com você
               D                   D     A/C#    Bm
E voando bem alto, me abraça pelo espaço de um instante,
                 Bm/A D/F#  G    G D/F# Em
Me cobre com teu corpo e me dá
        A
A força pra viver...
(repita as duas sequências da intro e "suba" a escala de A )

(legenda)
b = bend
r = reverse ("descer" a nota que está sob bend)
~ = vibrato
s = slide
* = staccato

Comentários 1

  • Ryan Ryan: Postado em 07/01/2014 16:59

    ta de parabéns ae gente

Composição: Giancarlo Bigazzi / Umberto Tozzi Versão: M. Ficoreli
Esse não é o compositor? Avise-nos.
Contribuição: Leandro Correções: Vinicius , Thello e mais 4 »
Exibir acordes »
publicidade
fechar