Random Acts Of Violence

Raging Speedhorn

Sem foto do Raging Speedhorn
Tom: C
		
Tabbed by mark kerry,*.
  
Tuning: low to high - c# g# c# f# a# d#
Transcribed by Mark Kerry
e-mail: *

key

/ = slide up
\ = slide down
b = bend
() = holding the bend
r = release

riff1 verse (guitar 1&2)

|------------------------------------------------------|
|------------------------------------------------------|
|------------------------------------------------------|
|------------------------------------------------------|
|--0--0-0--0-0--0-0--0--0--0-0--0----------------------|
|--0--0-0--0-0--0-0--0--0--0-0--0--3/5b-(5)-(5)-(5)-r--|

                                                      
riff2 chorus (guitar 1&2)

|------------------------------------------------------|
|------------------------------------------------------|
|------------------------------------------------------|
|------------------------------------------------------|
|--0--3-4-3-0--0-3-4-3-0--7b---------------------------|
|--0--3-4-3-0--0-3-4-3-0--7b---------------------------|

                                                      
play riff 2 thre times then play riff 3 once

riff3 end of chorus (guitar 1&2)

|------------------------------------------------------|
|------------------------------------------------------|
|------------------------------------------------------|
|------------------------------------------------------|
|--0--3-4-3-0--0-3-4-3--7--7-7-------------------------|
|--0--3-4-3-0--0-3-4-3--7--7-7-------------------------|

                                                      
riff4 outro (guitar 1&2)

|------------------------------------------------------|
|------------------------------------------------------|
|------------------------------------------------------|
|------------------------------------------------------|
|--0--7-\-\-\-\-1---0--7-\-\-\-\-1---0-----------------|
|--0--7-\-\-\-\-1---0--7-\-\-\-\-1---0-----------------|

                                                                               
: Ultimate Guitar Archive :: 
ttp://* 
To: *
ubject: New Tabs
-From: *
Tabbed by mark kerry,*.
 
Tuning: low to high - c# g# c# f# a# d#
Transcribed by Mark Kerry
e-mail: *

key

/ = slide up
\ = slide down
b = bend
() = holding the bend
r = release

riff1 verse (guitar 1&2)

|------------------------------------------------------|
|------------------------------------------------------|
|------------------------------------------------------|
|------------------------------------------------------|
|--0--0-0--0-0--0-0--0--0--0-0--0----------------------|
|--0--0-0--0-0--0-0--0--0--0-0--0--3/5b-(5)-(5)-(5)-r--|

                                                      
riff2 chorus (guitar 1&2)

|------------------------------------------------------|
|------------------------------------------------------|
|------------------------------------------------------|
|------------------------------------------------------|
|--0--3-4-3-0--0-3-4-3-0--7b---------------------------|
|--0--3-4-3-0--0-3-4-3-0--7b---------------------------|

                                                      
play riff 2 thre times then play riff 3 once

riff3 end of chorus (guitar 1&2)

|------------------------------------------------------|
|------------------------------------------------------|
|------------------------------------------------------|
|------------------------------------------------------|
|--0--3-4-3-0--0-3-4-3--7--7-7-------------------------|
|--0--3-4-3-0--0-3-4-3--7--7-7-------------------------|

                                                      
riff4 outro (guitar 1&2)

|------------------------------------------------------|
|------------------------------------------------------|
|------------------------------------------------------|
|------------------------------------------------------|
|--0--7-\-\-\-\-1---0--7-\-\-\-\-1---0-----------------|
|--0--7-\-\-\-\-1---0--7-\-\-\-\-1---0-----------------|

                                                                               
:: Ultimate Guitar Archive :: 
http://* 

164 exibições

Comentários 0

Composição: Bob Harris / Dani Ambrojo / Ronan Keating
Esse não é o compositor? Avise-nos.
Consegui tocarAinda não conseguiram tocar essa música. Seja o primeiro!
    Não consegui tocar
    Exibir acordes »
    publicidade
    fechar