A Mais Pedida

Raimundos

 Raimundos
Tom: C
		
(intro)

(solo)

E |----------------------------------------------------------------------
B |------8----8-10-8------------8----8-10-8------------8----8-10-8-------
G |-7--9-------------9--99-7--9-------------9--99-7--9-------------9--99-7-9-7-



E |-----------------------------------
B |-----------------------------------
G |-7^9-7^9---------------------------


(solo 2)( C5 G5 A5 )


E |-3-3-3-5-3------------- (3x)
B |-----------5-5-5-5-3-5-         b||--3-5-3----


(base)(junto com solo 2)

(solo 2)

E |----------------------------------------------------|
B |-------8-8-10-10-10-10-10-10------------------------|
G |-5-5-5-7-7--9--9--9--9--9--9-------7-7-7-7-7--------|
D |-5-5-5-5-5--7--7--7--7--7--7-- 3x--7-7-7-7-7--------|
A |-3-3-3-----------------------------5-5-5-5-5--------|
E |----------------------------------------------------|


C5                         (C5)
Nesse show não entra menor,
                 (C5)
Um homem censurou, tava de mau humor
F5                 D5                  A5  (G5)
Não tinha dormido bem porque não levantou
 C5                   (C5)
Pense como ia ser bom
                     (C5)
Se nós fizesse um som que ultrapassasse
       F5                         A5
A barreira das am, fm e dos elevador
    G5           C5
Aí sim, dá um selinho
                          D5
E mostra o seio that you saw
              F5                    A5
Quando eu te vi o meu calção se abriu
          D5                       G5
Caiu uma lágrima (solo 1) de um olho, que se for dos dois então é namoro


(solo 1) ( aparece no fundo da música, nesse D5 )
E |-3/5-3-------------------------|
B |-------5-3-3/5-5/3-------------|


(coro)
C5                 F5
Meu cabelo é ruim, mas meu terno é de linho
C5                      F5                D5
Vou ser seu salgadinho, cê vai gostar de mim
          G5          C5
Se eu tocar no seu radinho
             F5                    C5
Choro até o fim, só pra rimar com mim
                     F5                       D5
Pois se eu ganhar "din din" cê vai gostar de mim
        G5             C5
Se eu tocar no seu radinho

(repete solo 2)

 C5                    (C5)
Por favor, seu locutor,
               (C5)                    (C5)
Ao menos uma vez, melhor se fossem três
F5                                       (A5 G5 C5) (2x)
Toca o nosso som aí que tu me faz feliz
D5                                (A5 G5 C5) (2x)
Se não tocar eu quebro o seu nariz

(solo 3)

E |------------------------------------------------------------------------------
B |------------------------------------------------------------------------------
G |--------------------------------------5---------------------------------------
D |--------------------------7777-5--5h7---7-5-----------------------------------
A |-3--3-5-7-5-3---5-7-8-7-5--------7----------8-7-8-7-8-7/5~5/7-5--5-7----------
E |--3-----------5-------------------------------------------------8-------------



E |----------------------------------------------8-----------------------------------
B |--------5-----------------10-10-10-10-8--8h10--10-8---------------------10/8~-----
G |-5--5-7--7-5---7-9-10-9-7---------------9-----------9-10-9-10-9-10-9/7~-----------
D |--5----------7--------------------------------------------------------------------
A |----------------------------------------------------------------------------------
E |----------------------------------------------------------------------------------



  -------------15------15--------------|
  13/12~-15b16----15b16------16-15-13~-|
  -------------------------------------|
  -------------------------------------|
  -------------------------------------|
  -------------------------------------|


(repete coro)

C5             F5
Chame, chame...se der a chame ela...
C5             F5
Chame, chame...se der a chame ela...

     D5        G5            C5
Só assim preu tocar no seu radinho

(solo 2)

Comentários 10

  • AD  MS AD MS: Postado em 24/09/2014 10:56

    caramba primeira vez que vejo um A5 na 2ª casa

  • pedro pedro: Postado em 17/04/2014 16:01

    faz de guitarra ae

  • mini.mota mini.mota: Postado em 29/08/2012 20:19

    pra que video aula???????

  • brunin0802 brunin0802: Postado em 05/06/2012 20:31

    que bosta de video aula

  • jvfig jvfig: Postado em 19/05/2012 09:55

    AMO essa música mano,lembra minhacidade =D

  • vannyed vannyed: Postado em 17/04/2012 22:55

    caiu uma lagrima uruuu"

  • alexandre.weber alexandre.weber: Postado em 06/12/2011 13:43

    versão Beck & Nil
    gostei perfeitooo boa ideia incorpora teclado com rit bateria vo fase isso com a banda em enssaio mais facil kkk

  • Nil Nil: Postado em 01/11/2011 19:08

    Vejam a versão Beck & Nil na aba Você Tocando! :D

  • lovereal lovereal: Postado em 26/02/2011 19:14

    Meu nome é Miss Alegria
    entrar em contato comigo através do meu endereço de e-mail
    (joy_x1awaza/yahoo/com) para
    imagem e discussão ok

  • Mr.Brownstone Mr.Brownstone: Postado em 19/02/2011 04:15

    q droga esse troço do relacionamento ta em tudo

Composição: Rodolfo / Digão / Fred /Canisso
Esse não é o compositor? Avise-nos.
Contribuição: Chokitin Correções: gu , xandinho e mais 8 »
Exibir acordes »
publicidade
fechar