Bestinha

Raimundos

 Raimundos
Intr: A C D C D     2x
G------------------------------------| 
D-----2-5----------------------------|
A---3-----3-5-3-5--------------------|   2 vezes
E-5----------------5-----------------|

Riff1       A C D C D
G------------------------------------|
D------------------------------------|
A---3-----3-5-3-5--------------------|
E-5----------------5-----------------|

Riff2       F  A
G------------------------------------|
D------------------------------------|
A-8-8-8-8-8-8------------------------|
E-------------5-5-5-5-5-5-5-5-5------|

Riff3  E G A E G A   (1º parte)      (2º parte)  D
G--------------------------------|--------------------|
D--------------------------------|--------------------|
A--------------------------------|-5-5-5-5-5-5-5-5-5--|
E-0-0--3-3--5-5---0-0--3-3--5-5--|--------------------|
                                    Esta parte é
tocada
                                     no final do solo!

Riff4      E D
G------------------------------------|
D------------------------------------|
A-7-7-7-7-7-7-7--5-5-5-5-5-5-5-------|
E------------------------------------|

Riff5      A G C D C D
G------------------------------------|
D------------------------------------|
A------3-5--3-5----------------------|
E-5--3-----------5-------------------|

solo: Riff3 1º e 2º parte

_______________________________________________________
Contribuição: André Souza Almeida(writable@bol.com.br)
10.914 exibições

Comentários 0

Composição: Digão / Rodolfo Abrantes
Esse não é o compositor? Avise-nos.
Consegui tocarAinda não conseguiram tocar essa música. Seja o primeiro!
    Não consegui tocar
    publicidade
    fechar