Eu Quero Ver o Oco

Raimundos

 Raimundos
essa musica é tranquila, toda banda deve estar com o E afinado em D incluindo baixo e guitarra, 
esta cifra pode servir até para a guitarra, aliás é a mais correta de todas dessa musica... 
ela não pode ser tocada na segunda corda por causa do peso que ela precisa ter, por isso 
é necessário afinar a corda E em D


Intro:
A:--2-2--2-3-2-3-2--2--2-3-2-3...

Introb:(2x)
G:----------------------------------------------------|
D:----------------------------------------------------|
A:----------------------------------------------------|
D:--5-7-0--2-2-2-0-2--2--5-7-0-2-5-7-0--2-2-2-0-2--2--|

G:------------------------------------------------------|
D:------------------------------------------------------|
A:------------------------------------------------------|2x
D:--5-7-0--2-2-2-0-2-0-2--5-7-0-2-5-7-0--2-2-2-0-2-0-2--|

Introc:(4x)
G:------------------------| |---|
D:------------------------| |---|
A:------------------------| |---|
D:--5-5-7-8-9-9-10-11-----| |-2-|

Riff1:(2x)
G:-----------------------------------------------------------------------|
D:-----------------------------------------------------------------------|
A:-----------------------------------------------------------------------|
D:-(5-7-0)-2-2-2-0-2-0-2--5-7-0-2-4-5-0--2-2-2-0-2-0-2--5-5-5-5-3-3-3-3--|
    * a parte entre parenteses é tocada só a 1ªvez
Riff2:
G:----------------------------------------------------------------------------|
D:----------------------------------------------------------------------------|
A:----------------------------------------------------------------------------|
D:--5-5-7-8-9-9-10-11---5-5-7-8-9-9-9-9---5-5-7-8-9-9-10-11--5-5-5-5-7-7-7-7--|
   |-----3 vezes-----|                   |------3 vezes----|
  
Riff1:(2x)
G:-----------------------------------------------------------------------|
D:-----------------------------------------------------------------------|
A:-----------------------------------------------------------------------|
D:-(5-7-0)-2-2-2-0-2-0-2--5-7-0-2-4-5-0--2-2-2-0-2-0-2--5-5-5-5-7-7-7-7--|
    * a parte entre parenteses é tocada só a 1ªvez
Riff2:
G:----------------------------------------------------------------------------|
D:----------------------------------------------------------------------------|
A:----------------------------------------------------------------------------|
D:--5-5-7-8-9-9-10-11---5-5-7-8-9-9-9-9---5-5-7-8-9-9-10-11--5-5-5-5-7-7-7-7--|
   |-----3 vezes-----|                   |------3 vezes----|

Refrão:(4x)
G:--------------------------------|
D:--------------------------------|
A:--------------------------------|
D:-0-0-0-0-0--0--3-3-3-5-5-6-7----|

Intro

Riff1: sem tocar parenteses (2x)

Riff2

Refrão:(4x)

Durante o solo faça:(4x)
G:-------------------------------------------------------|
D:-------------------------------------------------------|
A:--2-2--2-3-2-3-2--2-2-3-2-3-2--------------------------|
D:------------------------------5-5--5-5-7-2-2-2-0-2-2-2-|

Refrâo:(4x)

Comentários 2

  • Augustu Augustu: Postado em 21/10/2014 16:18

    para tocar no baixo de 5 cordas vc tem a cifra?nao estou conseguindo tocala direito

  • Guilherme Guilherme: Postado em 11/11/2013 21:32

    Perfect

Composição: Rodolfo
Esse não é o compositor? Avise-nos.
Contribuição: tony
publicidade
fechar