Me Lambe

Raimundos

 Raimundos
Intro (guitar)- Em Eb D
    
G|----------------------|-------------------------|------
D|----------------------|-------------------------|-(4x)-
A|-7-6-5(8x)------------|--------9----7-----------|------
E|--------------10-9-8--|---7-10---10---10-9-10---|------

1a parte
   
   O quêee....
G|----------------------|     |-------------------------|
D|----5-4---------------|(7x) |---5-4-------------------|
A|-7------7-5-----5-6---|     |-7------7-5-----5-7-5----|
E|-------------7--------|     |-------------7-----------|

2a parte
   
       E eu contente com as ....
G|----------------------------------------------------------------|
D|----------------------------------------------------------------|
A|-3---3-3-3-3-3-3-0---0-0-0-0-0-0-3---3-3-3-3-3-3-0---0-0-5-5-5-5|
E|---3---------------0---------------3---------------0------------|

Me Dêee... 
G|----------------------|     |-------------------------|
D|----5-4---------------|(7x) |---5-4-------------------|
A|-7------7-5-----5-6---|     |-7------7-5-----5-7-5----|
E|-------------7--------|     |-------------7-----------|


         pra falar verdade...
G|----------------------------------------------------------------|
D|----------------------------------------------------------------|
A|-0---0-0-0-0-0-0-3---3-3-3-3-3-3-0---0-0-0-0-0-0-3-3-3-3-5-5-5-5|
E|---0---------------3---------------0----------------------------|

Refrão
G|----------------------|-------------------------|------
D|----------------------|-------------------------|-(4x)-
A|-7-6-5(8x)------------|--------9----7-----------|------
E|--------------10-9-8--|---7-10---10---10-9-10---|------


   Sinto amigo lhe dizer...
G|----------------------|     |-------------------------|
D|----5-4---------------|(7x) |---5-4-------------------|
A|-7------7-5-----5-6---|     |-7------7-5-----5-7-5----|
E|-------------7--------|     |-------------7-----------|
   


  O Homem de cassetete...
G|----------------------------------------------------------------|
D|----------------------------------------------------------------|
A|-3---3-3-3-3-3-3-0---0-0-0-0-0-0-3---3-3-3-3-3-3-0---0-0-5-5-5-5|
E|---3---------------0---------------3---------------0------------|


    
G|---------------------------------------------------------------------------------|
D|---------------------------------------------------------------------------------|
A|-3-3-3-3-3-5-5-5-5-5------------------------------------3-3-3-3-3-5-5-5-5-5-5-5--|
E|---------------------3-3-3-3-3-3-3-3-3-3-3-3-5-5-5-5-5---------------------------|

Entra o solo

G|--------|(Repete até o final da musica)|
D|--------|------------------------------|
A|--------|--------9----7----------------|
E|10-9-8--|---7-10---10---10-9-10--------|


Comentários 1

  • valdiinho valdiinho: Postado em 27/08/2012 12:10

    mto bom a tablatura..

Composição: Fred / Rodolfo / Digão
Esse não é o compositor? Avise-nos.
Contribuição: maninhodrum
publicidade
fechar