Me Lambe

Raimundos

 Raimundos
Intro (guitar)- Em Eb D



         Bm      Em      Bm     Em      Bm      Em       Bm     Em       
G|-----------------------------------------------------------------------|
D|---------0-4-0-2-0-------0-4-0-2-5-4-2---0-4-0-2-0-------0-4-0-2-5-4-0-|
A|-5-4-3-2-----------4-3-2---------------2-----------4-3-2---------------|
E|-----------------------------------------------------------------------|

1a parte
   
   O quêee....
G|---------------------------------|(repete)
D|-2-5-4-2-0---0-l-2-5-4-2-0---0-l-|
A|-----------2---------------2-----|
E|---------------------------------|

2a parte
   
       E eu contente com as ....
G|----------------------------------------------------------------|
D|----------------------------------------------------------------|
A|-3---3-3-3-3-3-3-0---0-0-0-0-0-0-3---3-3-3-3-3-3-0---0-0-5-5-5-5|
E|---3---------------0---------------3---------------0------------|

Me Dêee... 
G|---------------------------------|(repete)
D|-2-5-4-2-0---0-l-2-5-4-2-0---0-l-|
A|-----------2---------------2-----|
E|---------------------------------|


         pra falar verdade...
G|----------------------------------------------------------------|
D|----------------------------------------------------------------|
A|-0---0-0-0-0-0-0-3---3-3-3-3-3-3-0---0-0-0-0-0-0-3-3-3-3-5-5-5-5|
E|---0---------------3---------------0----------------------------|

Refrão
         Bm      Em      Bm     Em      Bm      Em       Bm     Em       
G|-----------------------------------------------------------------------|
D|---------0-4-0-2-0-------0-4-0-2-5-4-2---0-4-0-2-0-------0-4-0-2-5-4-0-|
A|-5-4-3-2-----------4-3-2---------------2-----------4-3-2---------------|
E|-----------------------------------------------------------------------|

   Sinto amigo lhe dizer...
G|---------------------------------|(repete)
D|-2-5-4-2-0---0-l-2-5-4-2-0---0-l-|
A|-----------2---------------2-----|
E|---------------------------------|

     O Homem de cassetete...
G|----------------------------------------------------------------------|
D|----------------------------------------------------2---2-2-2-2-2-2---|
A|-----------------0---0-0-0-0-0-0-0--3---3-3-3-3-3-3---2---------------|
E|-3-3-3-3-3-3-3-3---0------------------3-------------------------------|

                                                                                                                        Entra o solo
G|------------------------------------------------4-2-0-----------------|
D|------------------------------------------------------2-5-4-2-0---0-1-|
A|-3---3-3-5---5-5-----------------0-----3-----5------------------2-----|
E|---3-------5-----3-3-3-3-3-3-3-3-----------3--------------------------|

G|-------------------------------------------------|
D|-2-5-4-2-0---0-l-2-5-4-2-0---0-l-2-5-4-2-0---0-0-|
A|-----------2---------------2---------------2-----|
E|-------------------------------------------------|

Entra o assovio Am C Am D
Volta para o refrão... 



_______________________________________________________
Contribuição: André Souza Almeida(writable@bol.com.br)

Comentários 1

  • valdiinho valdiinho: Postado em 27/08/2012 12:10

    mto bom a tablatura..

Composição: Fred / Rodolfo / Digão
Esse não é o compositor? Avise-nos.
  1. Diz Pra Mim - Malta Manteve-se 81.274 exibições
  2. Domingo de Manhã - Marcos e Belutti Manteve-se 81.261 exibições
  3. Até Você Voltar - Henrique e Juliano Manteve-se 67.825 exibições
  4. Cuida Bem Dela - Henrique e Juliano Manteve-se 55.015 exibições
  5. Destino - Lucas Lucco Manteve-se 44.295 exibições
  6. All Of Me - John Legend Manteve-se 41.174 exibições
  7. Nocaute - Jorge e Mateus Manteve-se 38.067 exibições
  8. Raridade - Anderson Freire Manteve-se 35.806 exibições
  9. Recaídas - Henrique e Juliano Manteve-se 31.845 exibições
  10. Só Os Loucos Sabem - Charlie Brown Jr. Manteve-se 30.805 exibições
  1. Henrique e Juliano- Manteve-se 236.346 exibições
  2. Jorge e Mateus- Manteve-se 232.600 exibições
  3. Legião Urbana- Manteve-se 176.915 exibições
  4. Charlie Brown Jr.- Manteve-se 158.370 exibições
  5. Malta- Manteve-se 113.705 exibições
  6. Bruno e Marrone- Manteve-se 111.097 exibições
  7. Fernandinho- Manteve-se 105.537 exibições
  8. Marcos e Belutti- Manteve-se 96.452 exibições
  9. Lucas Lucco- Manteve-se 91.019 exibições
  10. Luan Santana- Manteve-se 87.118 exibições

Cifras e tabs

Fórum Cifra Club

Aprenda

Cifra Club News

Mais Serviços Cifra Club ID

Studio Sol

©1996 - 2014 Cifra Club · o primeiro, maior e mais acessado do Brasil · 343 mil músicas · 6.4 milhões pessoas cadastradas

publicidade
fechar