Papeau nuky Doe

Raimundos

 Raimundos
Tom: G
		
 
Intro: B5 D5 #fill#1(1a. guit.)+ #fill#2(2a. guit.)==>toque 2X essa seqüência                     

#fill#1:                      #fill#2:                   

e|------------------          e|-3-2-0--3-2-0--
B|------------------          B|------3------3-
G|------------------          G|---------------
D|-5-4-2-0--5-4-2-0-          D|---------------
A|------------------          A|---------------
E|------------------          E|---------------                                              

                                               
E depois:

e|-----------------------
B|-----------------------
G|-4-4-4-4---------------
D|-4-4-4-4---4-4-4-4-4-4-
A|-2-2-2-2---4-4-4-4-4-4-
E|---------0-2-2-2-2-2-2-

============================================================================                   
        B5
Pra agradar mulher
                D5
Faço qualquer esforço
                 B5
Me lembro da namorada
                   D5
Que eu tive quando moço
                      B5
Ela era linda e gente fina
                  D5
Rica, modesta e felina
                 A5
Melhor forma feminina
                     B5
E seu olhar é chumbo grosso
                       G5   
Só que ela tem a vista ruim
                     B5
Quase que ela não me vê
               A5
Uma garota tão legal
Pena que enxerga tão mal

B5 B5 B5 B5

B5              D5
Tanta mania menina fobia loca
B5                     D5
Tira essa roupa quase ofusca os meus ói
B5                     D5
Se lembra quando fomos jantar à francesa
A5                   B5
Tu pediu papeau nuky doe
                          G5
Se eu fosse um pouco maiorzin
                B5
Ia fazer ela tremer
                          D5
Olha o que eu ganhei no Natal
     #fill#1             B5 D5 #fill#1(1a. guit.) + #fill#2(2a. guit.)
Um aumentador de pananananal

Solo1 (Obs.: ~ =>deixe a nota tocando)

e|-5-3-2-0-5-3-2-0--3-2-0--3-2-0--------------------3--8----------------
B|-----------------------3------3--1~-5-3-1-5-3-1--5-5--8-10-8-6-5------
G|-----------------------------------------------2----------------5-----
D|-----------------------------------------------------------------5~---
A|-------------------------------------------------------------------5~-
E|----------------------------------------------------------------------
  |---------toque isto 2X--------|


Guitarra Base durante o Solo1:

e|---------------------------------------
B|---------------------------------------
G|---------------------------------------
D|---------------------------------------
A|-5-5-3-0-------------5-5-3-0-----------  C5 A5(3X) C5 B5
E|-----------3-3-2-0-------------3-3-2-0-
  |--4X---| |--4X---| |--4X---| |--4X---|


   B5           D5   
Eu gosto é de Natal
      #fill#1
Então pega no meu pananananal

Solo2

e|-7-5---5---------------0--------------
B|----8-7--8-7-5-8-7-5-3-5-7-8-7-5-3-5~-
G|--------------------------------------
D|--------------------------------------
A|--------------------------------------
E|--------------------------------------

Guit. Base durante solo2: B5 D5 #fill#1

   B5           D5
Eu gosto é de Natal
      #fill#1                
Então pega no meu pananananal

E no final:

e|--------------
B|--------------
G|-4-4-4-4---4~-
D|-4-4-4-4---4~-
A|-2-2-2-2---2~-
E|---------0----



Acordes:
  B5  D5  A5  G5  C5

e|---|---|---|---|---|
B|---|---|---|---|---|
G|-4-|-7-|-2-|---|-5-|
D|-4-|-7-|-2-|-5-|-5-|
A|-2-|-5-|-0-|-5-|-3-|
E|---|---|---|-3-|---|


____________________
Por : Arthur Bueno
45.791 exibições

Comentários 2

  • NETO NETO: Postado em 18/11/2012 10:32

    mto massa

  • douglashurley douglashurley: Postado em 01/06/2012 14:49

    conserta aquii namoral!

Exibir acordes »
publicidade
fechar