Pintando No Kombão

Raimundos

 Raimundos
Tom: E
		
Riff 1:

E|-------------------------------------------------------------------
B|-------------------------------------------------------------------
G|----------------------------------------------------------6-6-6-6--
D|----------------------------------------------------------6-6-6-6--
A|-2-2-2--4-7-4-7-4-7-9-9-7-9-9-4-4-7-7--4-2-4-7-4--2-2-2-2-4-4-4-4--
D|-2-2-2--4-7-4-7-4-7-9-9-7-9-9-4-4-7-7--4-2-4-7-4--2-2-2-2----------

  |-p.m.|

"Porra era tudo da porra no kombão. Buceta só se falava de buceta no
 kombão. Tontera o que reinava era a tontera no kombão. Cacete um dia
 eu dei o maior cacete no kombão."

Riff 2:

E|-----------------------------------------------------------
B|-----------------------------------------------------------
G|-------------------------------------------7----8/9-9-8/9--
D|-------------------------------------------7----8/9-9-8/9--
A|-4-7-4-7-9-9--4-7-4-7-4-7-9-9--4-7-4-7-4-7-5-7--6/7-7-6/7--
D|-4-7-4-7-9-9--4-7-4-7-4-7-9-9--4-7-4-7-4-7---7-------------


"Era o kombão da queimação, eu, Vitão e meu irmão. Todo mundo muito doido
 procurando diversão. E dirigir era um tesão, rolava até competição, quem
 desse a tragada mais forte é que tocava o bichão. Rolasse uma violão aí
 que era fudição rolava desde Bee Gees até Ratos de Porão. Tudo loco e
 feliz até que enfim."

Riff 3:

E|-----------------------
B|-----------------------
G|--------------6-6-6-6--
D|--------------6-6-6-6--
A|-7-7-4-4--7-7-4-4-4-4--
D|-7-7-4-4--7-7----------
  |--3X---|


"De noite a Kombi se enchia de mulher doida pra rondar, era melhor do que
 de dia, meu pai não deixava eu andar."

Riff 4:

E|-----------------------------------------
B|-----------------------------------------
G|--------------6-6/7/6--6-6/7/6--9-9-8/9--
D|--------------6-6/7/6--6-6/7/6--9-9-8/9--
A|-4-4-2-4-4-2--4-4/5/4--4-4/5/4--7-7-6/7--
D|-4-4-2-4-4-2-----------------------------
  |------------2 vezes----------|


"Pelas ruas da cidade eu vou pitando no kombão, a negada da área e
 sem miséria é só beckão."

(riff 3)
"Como minha mãe me dizia, tá no fogo é pra se queimar. Doidão na kombi eu
 só sorria, manda a mãe delas me pegar."

(riff 4)

Solo:

E|------------------------------------------------
B|------------------------------------------------
G|------------------------------------------------
D|-7-9-11-----7-9-11-9-11-9--7-9-11-----7-7-9-11--
A|-------9-7-9---------------------9-7-9----------
D|------------------------------------------------



E|-5-7-9------5-7-9-7-9-7----5-7-9------5-5-7-9---
B|-------7-5-7---------------------7-5-7----------
G|------------------------------------------------
D|------------------------------------------------
A|------------------------------------------------
D|------------------------------------------------

61.721 exibições

Comentários 0

Consegui tocarAinda não conseguiram tocar essa música. Seja o primeiro!
    Não consegui tocar
    Exibir acordes »
    publicidade
    fechar