Pompem

Raimundos

 Raimundos
Tom: G
		
(riff 1)                           (riff 2)

E|-------------------       E|-----------------
B|-------------------       B|-----------------
G|-------------------       G|-----------------
D|-------------------       D|-----------------
A|-7-5---------------       A|-7-5-------------
E|----7-6-5-0-3~------      E|------7-5-6-3-7~-


(intro)

|----------------------|    |------------------------------|
|----------------------|    |------------------------------|
|----------------------|4x  |------------------------------|
|---5p0----------------|    |---5p0------------------------|
|--------7p0-----------|    |--------7p0---------2-2-2-2-2-|
|-0-----------0h5h7--0-|    |-0-----------0h5h7--0-0-0-0-0-|



|-----------------------|-------------------- |-------------------x-x-|
|-----------------------|-------------------- |-------------------x-x-|
|-----------------------|-------------------- |-------------------x-x-|
|-----------------------|------------------- -|-------------------x-x-|
|-----/7.7.7------------|--/7.7.7------------ |--/7.7.7-----------7-7-|
|--0-0------8-8-3-2-0-0-|-------8-8-3-2-0-0-- |-------8-8-3-2-0---5-5-|


 E5                B5             D5
Menininha da cidade foi pro mato e adorou
E5             B5             D5
Tanta variedade de cobra, que apaixonou
E5                   B5         D5
Agora ela é viciada, sorriso de orelha a orelha
E5                 B5                 D5
Atrás da bicharada, vive trepando nas telhas

(riff 1)

E5                B5               D5
Menininha da cidade foi pro mato e se soltou
E5                  B5          D5
Levou tanta picada, ficou cheia do calor
E5                          B5             D5
A noite ela abre a janela que é pra mosquitada entrar
E5                B5               D5
A gente morde nela e ela coça devagar

(riff 1)
Mais alto - eu vou subir vamo lá!
(riff 2)
Mais alto - eu sou baixinho! Que é que há?
(riff 1)                              C5
Mais alto - Ela gritava mais alto e raca-raca
     A5
  Ia relando no asfalto

(riff 1)
Mais baixo - ia gemendo mais baixo
(riff 2)
Mais baixo - o buraquinho é mais embaixo
  (riff 1)                                           C5
Mais baixo - ia botando para baixo. Eu digo|
   A5
Eita diacho! Ela é feia mas eu sou macho

(refrão)
G5 D#5 D5  A#5  G5 D#5 D5 A#5 G5 D#5 D5 A#5  F5*
Entra na peia. Ajoelhou, vai ter que rezar
G5 D#5 D5 A#5 G5 D#5 D5 A#5 G5 D#5 D5 A#5 F5*
Deita na teia, aranha malvada, que vai me devorar

(riff 1)

E5                 B5              D5
Menininha da cidade foi pro mato e se mudou
E5                         B5             D5
Casou com um borrachudo que desde o nome ela gostou
E5                     B5            D5
Caiçara da mais doida, dos cabelo cheio de nó
E5                     B5                 D5
Trocou a vida moderna e não larga mais do cipó

G5 C5 G#5 D#5 G5 C5 G#5 D#5
Se eu fosse um mosquitinho ia te chupar todo dia
G5 C5 G#5 D#5 G5 C5 G#5 D#5
Ia te morder com carinho e nadar na molhadinha
A5 D5 A#5 F5* A5 D5 A#5 F5*
E na noite em que você, dormisse, só de calcinha
a5 D5 A#5 F5* A5 D5 A#5 F5*
Ia pegar na dobrinha onde a carne é bem mais macia

(refrão 2x)
(riff 1) E5

Comentários 4

  • Lucas Lucas: Postado em 25/05/2013 19:09

    Na minha opinião ta errado,tive que tirar de ouvido,mas ta valendo (:

  • vannyed vannyed: Postado em 17/04/2012 23:02

    mais alto " o ooo fasin

  • doriitozz doriitozz: Postado em 26/12/2011 21:41

    Agora já sei tocar ela inteira ;]

  • doriitozz doriitozz: Postado em 21/12/2011 16:50

    só a intro que é difícil, o resto é fácil!!

Composição: Sabe quem é o compositor? Envie pra gente. Contribuição: mauricio Correções: mauricio e mais 1 »
Exibir acordes »
publicidade
fechar