Como Naamã

Raquel Melo e Nani Azevedo

Sem foto do Raquel Melo e Nani Azevedo Compositor: Caio Felipe
Tom: 
		

E|----------------------------------------------------------------------------------------------------------
A|----------------------------------------------------------------------------------------------------------
D|----------------------------------------------------------------------------------------------------------
G|--------------------------5-4----------4-5----------4-5---------------------------------------------------
B|-3-5-7-------5-3-1-3----3------1----3--------1---3--------3-5-5---5-5-6-5-3-------------------------------
E|---------2------------------------------------------------------------------------------------------------



E|----------------------------------------------------------------------------------------------------------
A|----------------------------------------------------------------------------------------------------------
D|----------------------------------------------------------------------------------------------------------
G|-5----------5-5-0-2---------------------------------5----------5-5-0-2------------------------------------
B|----3-5-5----------------------5-6---5-6--------3------3-5-5----------------------5-6--5-6--------3-------
E|---------------------------5-3--------------3-5----------------------------5-3-------------3-5------------



E|----------------------------------------------------------------------------------------------------------
A|----------------------------------------------------------------------------------------------------------
D|----------------------------------------------------------------------------------------------------------
G|5--5-4-5-2------------------------------------------------------------------------------------------------
B|--3-------------------------------------------------------------------------------------------------------
E|-----------------5-3--------------------------------------------------------------------------------------


Refrão:

E|----------------------------------------------------------------------------------------------------------
A|----------------------------------------------------------------------------------------------------------
D|----------------------------------------------------------------------------------------------------------
G|----------------------------------------------------------------------------------------------------------
B|-3-5--5-6-5----------8-----------------5-6-5-6-5-6------5--5-6-5----3-3-5-3---3---7----3---5-3---2--------
E|-------------3-5-3------3-0-3-5--5-3----------------3-5-----------0----------2------3-5--2----------------

9.318 exibições

Comentários 0

Composição: Sabe quem é o compositor? Envie pra gente. Contribuição: cfsv
Consegui tocarAinda não conseguiram tocar essa música. Seja o primeiro!
    Não consegui tocar
    Exibir acordes »
    publicidade
    fechar