Próximo Alvo

Ratos de Porão

 Ratos de Porão
Tom: C
		

E|---------------------------------------------------| Intro E Refrão
B|---------------------------------------------------|
G|---------------------------------------------------|
D|----5-5-3-5--3-5--3-5-5-3--------------------------|
A|----5-5-3-5--3-5--3-5-5-3--------------------------|
E|----3-3-1-3--1-3--1-3-3-1--------------------------|




E|---------------------------------------------------|
B|---------------------------------------------------|
G|-----5-5-5-5--11-11-11-11--------------------------|Verso quando vocal fala com voz de idiota
D|-----5-5-5-5--11-11-11-11--------------------------|
A|-----3-3-3-3--9--9--9--9---------------------------|
E|---------------------------------------------------|




E|---------------------------------------------------|
B|---------------------------------------------------|
G|---------------------------------------------------|
D|----5-5-5-3---3-3-3-5-5-5--------------------------|
A|----5-5-5-3---3-3-3-5-5-5--------------------------|
E|----3-3-3-1---1-1-1-3-3-3--------------------------|



SOLO:


E|--------------------------------------
B|----14-14-12-14-12-14-12-14--14-14-12-
G|--------------------------------------       4 VEZES
D|--------------------------------------       ESTA PARTE
A|--------------------------------------
E|--------------------------------------




E|------------------------------------------------------------|
B|------------------------------------------------------------|
G|-----------------------15--------------12/\13-12/\13-13-13~-|    2 VEZES ESTA
D|----12-16-15-15-15-15b-15-12-16-15-15-----------------------|
A|------------------------------------------------------------|
E|------------------------------------------------------------|




E|-------------|
B|-------------|
G|-------------| No finzinho da musica quando ele fala
D|----5-5-5-3--| "Qualé q é mano, Porq vc ta me acordando"
A|----5-5-5-3--|
E|----3-3-3-1--|




E|-----------------------------------------------------------|
B|-----------------------------------------------------------| Final
G|-----------------------------------------------------------| "As torres desmoronando..."
D|----4-4-3-4------3-3-3-3-3-3-------------------------------|
A|----4-4-3-4------3-3-3-3-3-3-------------------------------|
E|----2-2-1-2------1-1-1-1-1-1-------------------------------|


Tem Partes que vão repetindo durante a musica é só escuta a música e 
encaixar tudo no lugar

LETRA:

Próximo Alvo

Qual será o próximo alvo da amérikkka
Qual será o próximo alvo na amérikkka
Qual será o próximo alvo da amérikkka
Qual será o próximo alvo na amérikkka

Eu não sei
Eu não sei

Qual será o próximo alvo da amérikkka
Qual será o próximo alvo na amérikkka
Qual será o próximo alvo da amérikkka
Qual será o próximo alvo na amérikkka


Usinas nucleares
A NASA ou Disneyworld
Caos em todos os lugares
Pior que no
World Trade Center


Qual será o próximo alvo da amérikkka
Qual será o próximo alvo na amérikkka
Qual será o próximo alvo da amérikkka
Qual será o próximo alvo na amérikkka

Eu não sei
Eu não sei

Qual será o próximo alvo da amérikkka
Qual será o próximo alvo na amérikkka
Qual será o próximo alvo da amérikkka
Qual será o próximo alvo na amérikkka

Amérikkka (4x)

Usinas nucleares
A nasa ou disneyworld
Caos em todos os lugares
Pior que no
World Trade Center

                 
O telefone tocando
Na bronca atendi
E já fui falando:
Qualé que é mano,
Porque cê tá me acordando?
Era o Fralda assustado:
"O mundo está acabando!!!
Arist, liga a TV
Não fique aí marcando"
Liguei e não acreditei


    As torres desmoronando

    As torres desmoronando

    As torres desmoronando

    As torres desmoronando

    As torres desmoronando

    As torres desmoronando
33.970 exibições

Comentários 0

Exibir acordes »
publicidade
fechar