Sessão das Dez

Raul Seixas

 Raul Seixas
Tom: A
		
Am                Dm
Ao chegar do interior
Bm7(b5)            E7
Inocente, puro e besta
                 A
Fui morar em Ipanema
     C#m            Bm
Ver teatro e ver cinema
       E7         Am
Era a minha distração
                    Dm
Foi numa sessão das 10
Bm7(b5)           E7
Que você me apareceu
               A
Me ofereceu pipoca
        C#m            Bm
Eu aceitei e logo em troca
       E7        A  A7
Eu contigo me casei
               Dm
Curtiu com meu corpo
     Bm7(b5)     Am  Am/G
Por mais de 10 anos
Am/F#   F           E7
E depois de tal engano
                    A
Foi você quem me deixou
A7             Dm
Curtiu com meu corpo
     Bm7(b5)     Am  Am/G
Por mais de 10 anos
Am/F#   F           E7
Foi tamanho desengano
                    Am
Que o cinema incendiou
           A7
(One more time)
                Dm
Curtiu com meu corpo
     Bm7(b5)     Am  Am/G
Por mais de 10 anos
Am/F#   F           E7
Foi tamanho desengano
                    Am  D  Dm  A
Que o cinema incendiou

E|--------12-12-12-|-12----12----12----13-12-------------------|
B|-----------------|----15----15----15-------15-13-12----------|
G|-----------------|----------------------------------14-13-14-|
D|-----------------|-------------------------------------------|
A|-----------------|-------------------------------------------|
E|-----------------|-------------------------------------------|



E|-------------------------13-12-------------------|
B|-13----12----13----15-12-------15-13-12----------|
G|----14----14----14----------------------14-13-14-|
D|-------------------------------------------------|
A|-------------------------------------------------|
E|-------------------------------------------------|



E|--------------------------------|--------------12-15-14----13----|-12-|
B|-13--15-15-13-12----------12----|-----------13----------15----15-|----|
G|-----------------14-13-14-------|-14--13s14----------------------|----|
D|-----------------------------14-|--------------------------------|----|
A|--------------------------------|--------------------------------|----|
E|--------------------------------|--------------------------------|----|

78.915 exibições

Comentários 0

Composição: Sabe quem é o compositor? Envie pra gente. Contribuição: LeandroPanucci Correções: yan_carnage e mais 1 »
Exibir acordes »
publicidade
fechar