Ser ou Parecer

RBD

 RBD
Tom: C#
		
C#        G#
Ser ou parecer quem imaginas
Bbm        G#                      F# 
Não vai me fazer a dona da tua vida
            G#
Se não me olhas Baby...


C#       G#
Muito eu tentei,
 
                 Bbm     G#
Falar um minuto para te tirar
              F#
Esse grande vazio
                 G# 
Que te faz tão frio baby...


F#                Bbm
Sei que talvez esse dia
             G# 
Nunca acontecerá...


REFRÃO:
C#              G#              Bbm
Mas entre meus sonhos sempre estarás 
          G#
Como uma luz que me ilumina
F#                       F#m
E ao despertar quero te ver me abraçar 
Eu...

C#         G#
Sei que o coração 
               Bbm              G#
Bate mais forte mais que um motor
                  F# 
Sei que não sabes nada de mim 
           F#m
Mas ainda vou te alcançar, amor...


Solo: 

Base: C#   G#    Bbm   G#    F#     F#m
E|-9-11-------------------------------------------------------12\-|
A|-----8-9-11-----------------------------9------9----------------|
D|-----------8-10-11----11----------11-11---11-----11-------------|
G|--------------------8----8-8h10-8------------11-----11~~--------|
B|----------------------------------------------------------------|
e|----------------------------------------------------------------|


C#           G#
Quando consegui, 
                 Bbm
Chegar me junto a ti,
         G#
Eu congelei,
               F#
Os nervos me matavam
                G#
Mas não disse nada baby...


C#       G#               Bbm
Quando decidi um dia te falar 
       G#                     F#
Te vi passar com outra bem contente
          G#
Não era o momento
Baby....


    F#                      Bbm
Eu só sei dizer que estou louca 
          G#
Tão apaixonada...

[refrão]


Bbm 
Vê-lo passar sem falar 
                  G#
É mais que um sofrimento
     F#                      C#   G#
Que desaparece na hora quando te penso
   Bbm                           G#
Andando ao meu lado amarrado num sentimento
       F#                         F#m              C#   G#
Não importam os dias que viva ou morra enquanto eu penso....
Bbm    G#              F#                 G#
       Vou sempre tentar....
solo:


E|-9-11-------------------------------------------|-9--8-6---------------------------|
A|-----8-9-11-----------------------------9-------|--------9--7-6--------------------|
D|-----------8-10-11----11----------11-11---11----|--------------8-6----------5-6-8--|
G|--------------------8----8-8h10-8------------11-|-------------------8--6-7-8-------|
B|------------------------------------------------|----------------------------------|
e|------------------------------------------------|----------------------------------|


obs.:a parte q está entre | | faz rapidinho é só ouvir a música pra pegar o tempo.

[refrão 2x]
 (as notas são as mesmas)
 (na segunda vez, deixe soar o C#. 
e quando o som estiver acabando 
Bata, mais duas vezes, bem leve.) 


Quem imaginas ser ou parecer
Quem imaginas ser ou parecer
Quem imaginas ser ou parecer 
Quem imaginas ser ou parecer 
Quem imaginas ser ou parecer
25.325 exibições

Comentários 0

Composição: Cláudio Rabello
Esse não é o compositor? Avise-nos.
Contribuição: rockeirinha13 Correções: rockeirinha13 »
Exibir acordes »
publicidade
fechar