Afaste-se de Mim

Reação Em Cadeia

 Reação Em Cadeia
Tom: D
		
Introdução

  Bm  A  G
e|----------------------------------|
B|-----5-5-7-7---------5-5-----5-5--|
G|-4-4---------4-4-7-7-----4-4------|
D|----------------------------------|
A|----------------------------------|
E|----------------------------------|

  
1ª e 2ª Parte

  Bm              G             Em
e|---------------------------------------------|
B|---------------------------------------------|
G|---------------------------------------------|
D|-9-9-9-9-------5-5-5-5-------2-2-2-2---------|
A|-9-9-9-9-------5-5-5-5-------2-2-2-2---------|
E|-7-7-7-7-------3-3-3-3-------0-0-0-0---------|


1ª Parte

Bm  G Em 
Veja,  nada mudou
Bm  G Em
Veja,  sou quem eu sou
Bm  G  Em            Bm       G     Em
Tente   me entender, me leve com você

Refrão

Bm    A    G
Te amo, mas  sou o problema
Bm    A     G
Te quero mas  sou o problema
Bm    A  G 
Salve-se,  sou o problema
Bm      A      G
Afaste-se de mim

Introdução: Bm A G

2ª Parte

Bm     G Em                 Bm   G Em
Eu sofro  por não saber as frases
Em            Bm   G Em
Pra lhe dizer "saia    da minha vida"
Bm            G  Em
Esqueça, não há  saida

Refrão

Bm    A    G
Te amo, mas  sou o problema
Bm    A     G
Te quero mas  sou o problema
Bm    A  G 
Salve-se,  sou o problema
Bm     A       G
 Afaste-se de mim

Solo:Bm A G 4x


Paradinha:Várias Vezes =D
e|-----------------------------------------|
B|-----------------------------------------|
G|-----------------------------------------|
D|-4-4-4h5-4-4-4-4h5-4-4-4-4h5-4-4-4-4h5-4-|
A|-----------------------------------------|
E|-----------------------------------------|



Bm    A    G
Te amo, mas  sou o problema
Bm    A     G
Te quero mas  sou o problema
Bm    A  G 
Salve-se,  sou o problema
Bm     A       G
 Afaste-se de mim


Bm     A       G   |Acompanha com o Riff da introdução
 Afaste-se de mim  |
Bm     A       G   |b|-----5-5-7-7---------5-5-----5-5--|
 Afaste-se de mim  |G|-4-4---------4-4-7-7-----4-4------|
Bm     A       G   |
 Afaste-se de mim  
Bm     A       G
 Afaste-se de mim 

...fazer as notas com 5ª B5 A5 E5 G5...
14.367 exibições

Comentários 0

Composição: Jonathan Corrêa
Esse não é o compositor? Avise-nos.
Contribuição: New_Link Correções: New_Link »
Consegui tocarAinda não conseguiram tocar essa música. Seja o primeiro!
    Não consegui tocar
    Exibir acordes »
    publicidade
    fechar