Californication

Red Hot Chili Peppers

 Red Hot Chili Peppers Compositor: Anthony Kiedis / Chad Smith / Flea / John Frusciante
Tom: C
		
Riff 1

    Am       F
E|-----------------------|
B|------0-1--------------|
G|---------------0-2-----|
D|----2------------------|
A|--0----------3---------|
E|-----------1-----------|


Se você for tocá-la sozinho(a) você pode substituir o riff 1 por este:
Riff**

   Am                F            Am                F
E|--------------------------------------------------------------|
B|-----0-1----------------------------0-1-----------------------|
G|-----------------------0-2----------------------------0-2-----|
D|---2---2-2-0h2p0---------0-0------2---2-2-0h2p0---------3-3-0-|
A|-0---------------3---3-------3--0---------------3---3---------|
E|-------------------1------------------------------1-----------|


Riff 2:

   C        G        F        Dm
E|-----0-----------------------------|
B|--------------0--------0--------0--|
G|---0---0-------------0---0----0---0|
D|------------0---0-----------2------|
A|-3-----------------2---------------|
E|----------3------------------------|



-Introdução:
Riff 1 (4X) ou Riff* (2X) ou ( Am F ) 4X


Am  (Riff 1 2X ou Riff ** 1X nessa estrofe)
Psychic spies from China
        F
Try to steal your mind's elation
Am
Little girls from Sweden
         F
Dream of silver screen quotations

    C                 G                |
And if you want these kind of dreams   | (Riff 2 nessa estrofe)

     F        Dm                       |
It's Californication                   |


Riff 1 (2X) ou Riff* (1X) ou ( Am F ) 2X

       Am   (Riff 1 2X ou Riff ** 1X nessa estrofe)
It's the edge of the world
           F
And all of western civilization
    Am
The sun may rise in the East
            F
At least it settles in the final location

     C               G           |
It's understood that Hollywood   | (Riff 2 nessa estrofe)

      F        Dm                |
Sells Californication            |


começa batida ao invés dos dedilhados: ( Am F7M ) 2X

Am
Pay your surgeon very well
   F7M
To break the spell of aging
  Am
Celebrity skin is this your chin
   F7M
Or is that war your waging

Refrão:
Am              F7M
  First born unicorn
Am               F7M
  Hard core soft porn
  C            G    Dm     Am
  Dream of Californication
  C            G    Dm
  Dream of Californication

Riff 1 (2X) ou Riff* (1X) ou ( Am F ) 2X

Am   (Riff 1 2X ou Riff ** 1X nessa estrofe)
Marry me girl be my fairy to the world
      F
Be my very own constellation
  Am
A teenage bride with a baby inside
        F
Getting high on information

    C                    G            |
And buy me a star on the boulevard    | (Riff 2 nessa estrofe)

     F        Dm                      |
It's Californication                  |


Riff 1 (2X) ou Riff* (1X) ou ( Am F ) 2X

Am   (Riff 1 2X ou Riff ** 1X nessa estrofe)
Space may be the final frontier
         F
But it's made in a Hollywood basement
  Am
Cobain can you hear the spheres
        F
Singing songs off station to station

    C             G            |
And Alderon's not far away     | (Riff 2 nessa estrofe)

     F        Dm               |
It's Californication           |


começa batida ao invés dos dedilhados: ( Am F7M ) 2X

Am
Born and raised by those who praise
   F7M
Control of population
Am
Everybody's been there and
   F7M
I don't mean on vacation

Refrão

C            G    Dm     Am
Dream of Californication
C            G    Dm
Dream of Californication

Solo (baseado na versão em estúdio da música):

   F#m      D F#m      D       Bm     D    A   E
E|----9----------9-------------------------------------
B|-10---7b9b7~10---7b9b7-7-7-7-7p5---------5-7b9b7-5---
G|---------------------------------6-6-4h6-----------6-
D|-----------------------------------------------------


   F#m     D  F#m     D         Bm    D     A       E
E|----9-12-14~~--9-12-14b16-14~~17-16-14----14-------------
B|-10---------10-------------------------17----17-14-17-14-
G|---------------------------------------------------------
D|---------------------------------------------------------


  Bm    D     A        E      Bm         D     A     E
E|----------------------14b15b14-------------------------------
B|-14----14----14----17----------17-14-17-14-------17-15-14----
G|-16b18-16b18-16b18-------------------------16-14----------14-
D|-------------------------------------------------------------


(na última nota do solo volta a fazer o Riff 1 ou **:
Riff 1 (2X) ou Riff* (1X) ou ( Am F ) 2X

Am   (Riff 1 2X ou Riff ** 1X nessa estrofe)
Destruction leads to a very rough road
       F
But it also breeds creation
    Am
And earthquakes are to a girl's guitar
        F
They're just another good vibration

    C                    G                |
And tidal waves couldn't save the world   | (Riff 2 nessa estrofe)

     F        Dm                          |
From Californication                      |


começa baitda ao invés dos dedilhados: ( Am F7M ) 2X

Am
Pay your surgeon very well
   F7M
To break the spell of aging
Am
Sicker than the rest there is no test
    F7M
But this is what you're craving

Refrão

C            G    Dm     Am
Dream of Californication
C            G    Dm/C
Dream of Californication


OBS*: Faça o F7M na horas batidas assim: X 3 3 2 1 0

OBS**: Este abaixo é o solo na versão do Rock In Rio 2000.
x=Várias batidas de tempo alternado,ouça musica pra pegar o ritmo.


E|----9------------------9------------------------------------------------------------------|
B|-10----------------10---------------------------------------------------------------------|
G|-------11-11-11------------11/13--11---13/14--13--11--9--9--------------11/13---11--9-11--|
D|-------------------------------------------------------------11-11---11-------------------|



E|-------------------------------------------------------------------------|
B|--------------------12/14-14--12--10--12--12--14--12--10--9--10--12b(14)-|
G|------------9h11x--------------------------------------------------------|
D|-----9h11x---------------------------------------------------------------|
A|-9X----------------------------------------------------------------------|



E|---------------------------------------12--9-9-9---12/14--14-14-14-14-14----20-20-20-|
B|-9--10--9---12/14---12---10---9---10-------------------------------------------------|
G|-------------------------------------------------------------------------------------|
D|-------------------------------------------------------------------------------------|
Texto Colunas
Alterar tom ½ tom ½ tom
afinação acordes na letra esconder tabs mais »

Comentários 6

  • joaopedro.ribeiro.752 joaopedro.ribeiro.752: Postado em 29/01/2014 15:39

    tenso essa ai , devagar e facil quero ver fazer de cabeça e rapido !

  • Iasmyn Iasmyn: Postado em 22/01/2014 12:45

    muito legal essa musica aprendi rapidinho hehe

  • Isaac Isaac: Postado em 21/01/2014 17:02

    não ta aparecendo as versões principais

  • josue josue: Postado em 21/01/2014 14:44

    ave ta bugado

  • marcelo.pavani.58 marcelo.pavani.58: Postado em 16/01/2014 20:10

    cifra club bugado uehauehaeuaheuaeha bosta

    • Iasmyn Iasmyn: Postado em 22/01/2014 12:45

      Nunka meu filho neeh

Composição: Anthony Kiedis / Chad Smith / Dominguinhos / Felix Rodriguez / Flea / John Frusciante / Ricardo Augusto / Vincent Ford
Esse não é o compositor? Avise-nos.
Contribuição: john_liberato Correções: Beneton , marciomazeti e mais 2 »
  1. Domingo de Manhã - Marcos e Belutti Manteve-se 101.682 exibições
  2. Pra Você - Onze:20 Manteve-se 49.051 exibições
  3. Até Você Voltar - Henrique e Juliano Manteve-se 48.097 exibições
  4. Logo Eu - Jorge e Mateus Manteve-se 43.779 exibições
  5. Recaídas - Henrique e Juliano Manteve-se 42.217 exibições
  6. Evidências - Chitãozinho & Xororó Manteve-se 38.180 exibições
  7. Só Os Loucos Sabem - Charlie Brown Jr. Manteve-se 32.025 exibições
  8. Give Me Love - Ed Sheeran Manteve-se 29.876 exibições
  9. Pais e Filhos - Legião Urbana Manteve-se 29.142 exibições
  10. Sky Full Of Stars - Coldplay Manteve-se 27.990 exibições
  1. Jorge e Mateus- Manteve-se 260.104 exibições
  2. Legião Urbana- Manteve-se 207.461 exibições
  3. Henrique e Juliano- Manteve-se 179.140 exibições
  4. Charlie Brown Jr.- Manteve-se 152.215 exibições
  5. Bruno e Marrone- Manteve-se 133.114 exibições
  6. Marcos e Belutti- Manteve-se 124.469 exibições
  7. Fernandinho- Manteve-se 118.579 exibições
  8. Luan Santana- Manteve-se 107.717 exibições
  9. Thalles Roberto- Manteve-se 94.507 exibições
  10. Victor e Leo- Manteve-se 92.296 exibições
Exibir acordes »

Cifras e tabs

Fórum Cifra Club

Aprenda

Cifra Club News

Mais Serviços Cifra Club ID

Studio Sol

©1996 - 2014 Cifra Club · o primeiro, maior e mais acessado do Brasil · 337 mil músicas · 6.2 milhões pessoas cadastradas

publicidade
fechar