Did I Let You Know

Red Hot Chili Peppers

 Red Hot Chili Peppers
Intro / Verso:
G|-------------------------|-------------------------|
D|-----------3h5-5-5--3----|-----------3h5-5-5--3----|
A|-3------3-------------6--|-3------3-------------6--|
E|-------------------------|-------------------------|

G|-------------------------|-------------------------|
D|-------------------------|-------------------------|
A|-1------1--3h5-5-5--3-1--|-1------1--- --1---3/5---|
E|-------------------------|-------------3-----------|

Refrão:
G|-------------------------|-------------------------|
D|-3---3----3----------3-4-|-5---5-----5------5------|
A|----3----3---------------|----5-----5--------------|
E|-------------------------|-------------------------|

G|-------------------------|-------------------------|
D|-3---3----3----------3-4-|-5---5-----5------5------|
A|----3----3---------------|----5-----5--------------|
E|-------------------------|-------------------------|

G|-------------------------|-------------------------|
D|-------------------------|-------------------------|
A|-1---1-----1------3/5----|-3---3-----3----3h53-----|
E|----1-----1--------------|----3-----3-----------6--|

G|-------------------------|-------------------------|
D|-------------------------|-------------------------|
A|---------------------3-5-|-------------------------|
E|-3--x-3---x-3------------|--3--x-3---x-3-----------|

Solo:

G|-----5--3-5------5--3-5--|
D|-------------------------|
A|-3------------3----------|
E|-------------------------|

Solo: 
G|-------------------------|-------------------------|---------------------------|
D|-------------------------|-------------------------|---------------------------|
A|-4--x-4--x-4---------4-4-|-6--x-6--x-6-------6--8--|---------------------------|
E|-------------------------|-------------------------|--6--x-6---x-6-------------|

G|-------------------------|-------------------------|-----------------5h75------|
D|-------------------------|-5--x-5--x-5---5-------5-|-8--x-8---x-8-----------85-|
A|-------------------------|---------------------7---|---------------------------|
E|-6--x-6--x-6------6------|-------------------------|---------------------------|

G|-------------------------|-------------------------|---------------------------|
D|----------------5/7---5--|-------------------------|---------------------------|
A|-8--x-8--x-8-----------8-|-6--x-6--x-6-------------|-4-4--4---x-4----------4-4-|
E|-------------------------|-------------------------|---------------------------|

G|-------------------------|-------------------------|---------------------------|
D|-------------------------|-------------------------|-8--x-8---x-8--------------|
A|-6-6--6---x-8/10-8-6-8-6-|---------------------6-8-|---------------------------|
E|-------------------------|-6--x-6---x-6------------|---------------------------|

G|-----5--3-5------5--3-5--|-----5--3-5------5--3-5--|
D|-------------------------|-------------------------|
A|-3-----------3-----------|-3-----------3-----------|
E|-------------------------|-------------------------|

G|-----3--2-3------3--2-3--|-----3--2-3------3--2-3--|
D|-------------------------|-------------------------|
A|-1-----------1-----------|-1-----------1-----------|
E|-------------------------|-------------------------|

Comentários 0

Composição: Anthony Kiedis, Flea, Chad Smith & Josh Klinghoffer
Esse não é o compositor? Avise-nos.
Contribuição: vitubassist
publicidade
fechar