Red Hot Chili Peppers

The Zephyr Song

465.389 exibições
Tom: C
Introdução: Am7  G7  Em  F
            Am  G  Em  F7M


   Am7      G7       Em       F
E|------------------------------------------|
B|-----8--------6---------------------------|
G|---5--------4----------4--------5---------|
D|-7--------5----------5--------7-----------|
A|-------------------7--------8-------------|
E|------------------------------------------|


   Am       G        Em       F7M
E|------------------------------------------|
B|-----5--------3-----------------5---------|
G|---5--------4----------4--------5---------|
D|-7--------5----------5--------7-----------|
A|-------------------7--------8-------------|
E|------------------------------------------|



Primeira Parte:


   Am                G
E|------------------------------------------|
B|-----5----8--6--5------3---6-5-3----------|
G|---5---5-------------4---4----------------|
D|-7-----------------5----------------------|
A|------------------------------------------|
E|------------------------------------------|


   Em                F
E|------------------------------------------|
B|------------------------------------------|
G|-----4----7--5--4------5-7/9-7-5-4/5------|
D|---5---4-------------7--------------------|
A|-7-----------------8----------------------|
E|------------------------------------------|


   Am                G
E|-------------5--0-------------------------|
B|-----5----8------------3---6-5-3----------|
G|---5---5-------------4---4----------------|
D|-7-----------------5----------------------|
A|------------------------------------------|
E|------------------------------------------|


   Em                F
E|------------------------------------------|
B|-------------5----------------------------|
G|-----4----7-----5----4-5---4-5------------|
D|---5---4----------------------------------|
A|-7-----------------8-----8----------------|
E|------------------------------------------|


Am
   Can I get your hand to write on
G
  Just a piece of leg to bite on
Em
   What a nipe to fly my kite on
 F
Do you want to flash a light on
Am                             G
   Take a look it's on display   

For you
Em                           F
   Coming down, no not today


   Am                G
E|------------------------------------------|
B|-----5----8--6--5------3---6-5-3----------|
G|---5---5-------------4---4----------------|
D|-7-----------------5----------------------|
A|------------------------------------------|
E|------------------------------------------|


   Em                F
E|------------------------------------------|
B|------------------------------------------|
G|-----4----7--5--4------5-7/9-7-5----------|
D|---5---4-------------7--------------------|
A|-7-----------------8----------------------|
E|------------------------------------------|


   Am                G
E|-------------5--0-------------------------|
B|-----5----8------------3---6-5-3----------|
G|---5---5-------------4---4----------------|
D|-7-----------------5----------------------|
A|------------------------------------------|
E|------------------------------------------|


   Em                F
E|------------------------------------------|
B|-------------5----------------------------|
G|-----4----7-----5----4-5---4-5------------|
D|---5---4----------------------------------|
A|-7-----------------8-----8----------------|
E|------------------------------------------|


Am
   Did you meet your fortune teller
G
  Get it off with no propeller
Em
   Do it up it's on with stellar
  F
What a way to finally smell her
Am                               G
   Pickin’ up but not too strong   

For you
Em                             F
   Take a piece and pass it on
 

Primeiro Refrão:

D
  Fly away on my Zephyr
G            A
  I feel it more than ever
D
  And in this perfect weather
G                A
  We’ll find a place together
  Am  G   Em  F
Fly   on my  wind


   Am                G
E|------------------------------------------|
B|-----5----8--6--5------3---6-5-3----------|
G|---5---5-------------4---4----------------|
D|-7-----------------5----------------------|
A|------------------------------------------|
E|------------------------------------------|


   Em                F
E|------------------------------------------|
B|------------------------------------------|
G|-----4----7--5--4------5-7/9-7-5-4/5------|
D|---5---4-------------7--------------------|
A|-7-----------------8----------------------|
E|------------------------------------------|



Segunda Parte:


   Am                G
E|------------------------------------------|
B|-----5----8--6--5------3---6-5-3-5--------|
G|---5---5-------------4---4----------------|
D|-7-----------------5----------------------|
A|------------------------------------------|
E|------------------------------------------|


   Em                F
E|------------------------------------------|
B|------------------------------------------|
G|-----4----7--5--4------5-7/9-7-5-7/9------|
D|---5---4-------------7--------------------|
A|-7-----------------8----------------------|
E|------------------------------------------|


   Am                G
E|-------------5--0-------------------------|
B|-----5----8------------3---6-5-3----------|
G|---5---5-------------4---4----------------|
D|-7-----------------5----------------------|
A|------------------------------------------|
E|------------------------------------------|


   Em                F
E|------------------------------------------|
B|-------------5----------------------------|
G|-----4----7-----5----4-5---4-5------------|
D|---5---4----------------------------------|
A|-7-----------------8-----8----------------|
E|------------------------------------------|


Am
   Rebel and a liberator
G
  Find a way to be a skater
E m
  Rev it up to levitate her
 F
Super friendly aviator
Am                             G
   Take a look it's on display
        Em
For you    comin’ down
             F
No not today


Segundo Refrão:

D
  Fly away on my zephyr
G            A
  I feel it more than ever
D
  And in this perfect weather
G                A
  We’ll find a place together

D
  In the water where 

I center my emotion
G                    A       G  A
  All the world can pass me by
D
  Fly away on my zephyr
G                A
  We’ll find a place together


Solo: 


E|-12--10--12-12~---12----10--12-----------------------|
B|--------------------------------12b13r12--10---------|
G|-----------------------------------------------------|
D|-----------------------------------------------------|
A|-----------------------------------------------------|
E|-----------------------------------------------------|


E|-10--8--10-10~---10-x----10--12----------------------|
B|---------------------------------12b13r12--10--------|
G|-----------------------------------------------------|
D|-----------------------------------------------------|
A|-----------------------------------------------------|
E|-----------------------------------------------------|


E|-12--10--12-12~---12----10--12-----------------------|
B|--------------------------------12b13r12--10---------|
G|-----------------------------------------------------|
D|-----------------------------------------------------|
A|-----------------------------------------------------|
E|-----------------------------------------------------|


E|-10--8--10-10~---10-8----10--x-----------------------|
B|---------------------------------12b13r12--10--5-----|
G|-----------------------------------------------------|
D|-----------------------------------------------------|
A|-----------------------------------------------------|
E|-----------------------------------------------------|



Terceira Parte:

Am9
    Whoa, whoa, whoa, whoa
                  G9
Whoa, whoa, whoa,    do you
Em
   Yeah, yeah, yeah, yeah
                 F7M
Yeah, yeah, yeah
Am9
    Whoa, whoa, whoa, whoa
                  G9
Whoa, whoa, whoa,    won't you?
Em
   Yeah, yeah, yeah, yeah
                 F7M
Yeah, yeah, yeah


Terceiro Refrão:

D
  Fly away on my zephyr
G            A
  I feel it more than ever
D
  And in this perfect weather
G                A
  We’ll find a place together
D
  In the water where 

I center my emotion
G                    A       G  A
  All the world can pass me by
D
  Fly away on my zephyr
G           A
  We gonna live forever


Final: D  G  A  (4x)
       G  A  D

(Parte 1)


   D
E|-14-------14-------14-------14-------14---|
B|-------15-------15-------15-------15----15|
G|----14-------14-------14-------14---------|
D|------------------------------------------|
A|------------------------------------------|
E|------------------------------------------|


                 G               A
E|-----------15--------15--------------17---|
B|--------15--------15----15--------17------|
G|-14--16--------16----------16--18---------|
D|------------------------------------------|
A|------------------------------------------|
E|------------------------------------------|


E|-------17---------------------------------|
B|----17------------------------------------|
G|-18---------------------------------------|
D|------------------------------------------|
A|------------------------------------------|
E|------------------------------------------|


(Parte 2)


   D
E|-------14-------14-------14-------14------|
B|----15-------15-------15-------15-------15|
G|-14-------14-------14-------14-------14---|
D|------------------------------------------|
A|------------------------------------------|
E|------------------------------------------|


          G                        A
E|-14-14--------15-------15--------------17-|
B|-----------15-------15----15--------17----|
G|--------16-------16----------16--18-------|
D|------------------------------------------|
A|------------------------------------------|
E|------------------------------------------|


E|-------17---------------------------------|
B|----17------------------------------------|
G|-18---------------------------------------|
D|------------------------------------------|
A|------------------------------------------|
E|------------------------------------------|


(Parte 3)


   D
E|-------14-------14-------15-------14------|
B|----15-------15-------15----15-------15---|
G|-14-------14-------14----------14-------14|
D|------------------------------------------|
A|------------------------------------------|
E|------------------------------------------|


          G                        A
E|-14-14--------15-------15--------------17-|
B|-----------15-------15----15--------17----|
G|--------16-------16----------16--18-------|
D|------------------------------------------|
A|------------------------------------------|
E|------------------------------------------|


E|-------17---------------------------------|
B|----17------------------------------------|
G|-18---------------------------------------|
D|------------------------------------------|
A|------------------------------------------|
E|------------------------------------------|


(Parte 4)


   D
E|-------14-------14-------15-------14------|
B|----15-------15-------15----15-------15---|
G|-14-------14-------14----------14-------14|
D|------------------------------------------|
A|------------------------------------------|
E|------------------------------------------|


          G                        A
E|-14-14--------15-------15--------17-------|
B|-----------15-------15----15-----17-------|
G|--------16-------16----------16--18-------|
D|------------------------------------------|
A|------------------------------------------|


(Parte 5)


   G   A   D
E|-15--17--17-------------------------------|
B|-15--17--19-------------------------------|
G|-16--18--19-------------------------------|
D|---------0--------------------------------|
A|------------------------------------------|
E|------------------------------------------|
    Composição: Anthony Kiedis / Chad Smith / Flea / John FruscianteColaboração e revisão:
    • v.inny
    • nitric
    • Leandro, The Legend
    • dr.paxeco
    • +3

    Comentários 25

    140 .
    • leo130 leo130: Em 28/06/2015 16:57

      o outro arranjo era mais fácil, mas a aula ficou perfeita!!

    • osmar.nevermind osmar.nevermind: Em 18/06/2015 23:44

      Vídeo aula completa mesmo, não falta nada!
      Parabéns pelo trabalho Vinícius!!!

    • matheusrhcp matheusrhcp: Em 13/08/2014 23:02

      faz video aula galera

    • alyson.santos.100 alyson.santos.100: Em 25/02/2014 10:11

      Quero a video-aula dessa musica !

    • Marília Marília: Em 10/11/2013 20:34

      Quais são as batidas ?

    • fabioserette fabioserette: Em 07/11/2013 21:38

      Essa música é cheia de detalhes que o autor dessa tablatura "esqueceu". Pra brincar no violão, serve. Pra guitarra... esquece.

    • fabioserette fabioserette: Em 07/11/2013 21:36

      Tirei esse som há uns 8 anos e, na época, de orelhada.... e ficou muito melhor que isso aqui. Hj é só copia e cola.. ninguém se esforça.

      • Rafael Rafael: Em 05/06/2015 22:15

        verdade antigamente era bem dificil mas era mais legal, não pelo esforço mas pelo som que saia depois

    • Kaique Kaique: Em 01/11/2013 20:38

      o solo do video do 1° cover é pooco disafinado hahah

    • giovannaspk giovannaspk: Em 06/05/2013 16:43

      Essa música é muito boa ! Puta que pariu

    Exibindo 10 de 25 comentários Mostrar mais ver todos »
    140 cancelar
    0:00 / 0:00

    Capítulos

      2 versões de baixo exibições contribuição e correção
      1 versão de bateria exibições contribuição e correção
      1 versão de Guitar Proformatodownloadscontribuição
      play/pausefechar subir/descer velocidade
      6ª corda E5ª corda A4ª corda D3ª corda G2ª corda B1ª corda E
        acordes
        versão revisada v.inny instrutor de guitarra
        publicidad
        fechar
        ok