The Zephyr Song

Red Hot Chili Peppers

 Red Hot Chili Peppers
Tom: C
		
 /=slide   b=bend   r=bend reverso   h=hammer on   p=pull off

Intro:

E|------3---------1---------------------------|
B|----1---------0-------------0---------1/3-1-|
G|--2---------0-------------0---------2-------|
D|------------------------2---------3---------|
A|--------------------------------------------|
E|--------------------------------------------|



E|--------------------------------------0-----|
B|------5---------3-----------0---------1-----|
G|----5---------4-----------0---------2-------|
D|--7---------5-----------2---------3---------|
A|--------------------------------------------|
E|--------------------------------------------|


Riff1

E|------------------------------------------------------------------------|
B|-------5---6-8/6-5-------3---6-5-3-----0---3-1-0----------1---1/3-1-0-1-|
G|-----5---5--------5----4---4---------0---0--------5-----2---2-----------|
D|---7-----------------5-------------2------------------3-----------------|
A|------------------------------------------------------------------------|
E|------------------------------------------------------------------------|


Riff2

E|--------------5--------------------------------------------------|
B|-------5---8-----------3---6-5-3-----0---3-1-0-----1-----1~~-----|
G|-----5---5-----------4---4----------0--0----------2-----2--------|
D|---7---------------5--------------2------------3-----3-----------|
A|-----------------------------------------------------------------|
E|-----------------------------------------------------------------|


Am
Can I get your hand to write on
G
Just a piece of leg to bite on
Em
What a night to fly my kite on
F
Do you wanna flash a light on
Am                           G
Take a look it's on display  -  for you
Em                         F
Coming down no, not today

Am
Did you meet your fortune teller
G
Get it off with no propeller
Em
Do it up it's on with Stella
F
What a way to finally smell her
Am                          G
Pick it up it's not too strong - for you
Em                             F
Take a piece and  pass it on

D
Fly away on my Zephyr
G           A
I feel it more than ever
D
And in this perfect weather
G               A
We'll find a place together
(Am  G Em  F)
Fly on my wing

Am
Rebel and a liberator
G
Find a way to be a skater
Em
Rev it up to levitate her
F
Super friendly aviator
Am                            G
Take a look it's on display   -   for you
Em                           F
Coming down no, not today

D
Fly away on my Zephyr
G             A
I feel it more than ever
D
And in this perfect weather
G                 A
We'll find a place together
D
In the water where I center my emotion
G                  A
All the world can pass me by
D
Fly away on my Zephyr
G                A           Am
We'll find a place together

Solo:


E|---12-10-12-12~-12-10-12--------------10-8-10-10~-8-10-10-12------------------|
B|-------------------------12b12--10-----------------------12b12--10------------|
G|------------------------------------------------------------------------------|
D|------------------------------------------------------------------------------|
A|------------------------------------------------------------------------------|
E|------------------------------------------------------------------------------|



E|---12-10-12-12~----10-12--------------10-8-10-10~-8-10-10-12------------------|
B|-------------------------12b12--10------------------------12b12--10-----------|
G|---------------------------------------------------------------------9--------|
D|------------------------------------------------------------------------------|
A|------------------------------------------------------------------------------|
E|------------------------------------------------------------------------------|


Am                             G
Whoa whoa whoa whoa whoa whoa- do you
Em                                  F
Yeah yeah yeah yeah yeah yeah yeah
Am                              G
Whoa whoa whoa whoa whoa whoa - want you
Em                                  F
Yeah yeah yeah yeah yeah yeah yeah

D
Fly away on my Zephyr
G             A
I feel it more than ever
D
And in this perfect weather
G                 A
We'll find a place together
D
In the water where I center my emotion
G                  A
All the world can pass me by
D
Fly away on my Zephyr
G              A         D G A
We're gonna live forever
D G A D
Forever
Texto Colunas
Alterar tom ½ tom ½ tom
afinação acordes na letra esconder tabs mais »

Comentários 22

  • matheusrhcp matheusrhcp: Postado em 13/08/2014 23:02

    faz video aula galera

  • alyson.santos.100 alyson.santos.100: Postado em 25/02/2014 10:11

    Quero a video-aula dessa musica !

  • Marília Marília: Postado em 10/11/2013 20:34

    Quais são as batidas ?

  • fabioserette fabioserette: Postado em 07/11/2013 21:38

    Essa música é cheia de detalhes que o autor dessa tablatura "esqueceu". Pra brincar no violão, serve. Pra guitarra... esquece.

  • fabioserette fabioserette: Postado em 07/11/2013 21:36

    Tirei esse som há uns 8 anos e, na época, de orelhada.... e ficou muito melhor que isso aqui. Hj é só copia e cola.. ninguém se esforça.

  • Kaique Kaique: Postado em 01/11/2013 20:38

    o solo do video do 1° cover é pooco disafinado hahah

  • giovannaspk giovannaspk: Postado em 06/05/2013 16:43

    Essa música é muito boa ! Puta que pariu

  • tetheus001 tetheus001: Postado em 13/10/2012 14:03

    ó galera songsterr . com/ a/ wsa/ red-hot-chili-peppers-the-zephyr-song-live-at-slane- castle - guitar - tab - s84542t0

  • leninho leninho: Postado em 10/09/2012 23:07

    Por favor voces podem postar a versão do castelo slane dessa musica, os solos são de passar pela espinha

    • kemeron kemeron: Postado em 25/10/2012 10:38

      é mesmo,aquela versão é linda demais. a abertura ficou incrivel

Exibindo 10 de 22 comentários Mostrar mais ver todos »
Composição: Anthony Kiedis / Chad Smith / Dominguinhos / Felix Rodriguez / Flea / John Frusciante / Ricardo Augusto / Vincent Ford
Esse não é o compositor? Avise-nos.
Contribuição: caio Correções: nitric , Leandro, The Legend e mais 3 »
  1. Domingo de Manhã - Marcos e Belutti Manteve-se 81.006 exibições
  2. Até Você Voltar - Henrique e Juliano Manteve-se 68.135 exibições
  3. Diz Pra Mim - Malta Manteve-se 62.718 exibições
  4. Cuida Bem Dela - Henrique e Juliano Manteve-se 53.751 exibições
  5. All Of Me - John Legend Manteve-se 43.982 exibições
  6. Nocaute - Jorge e Mateus Manteve-se 36.690 exibições
  7. Raridade - Anderson Freire Manteve-se 36.547 exibições
  8. Destino - Lucas Lucco Manteve-se 35.606 exibições
  9. Recaídas - Henrique e Juliano Manteve-se 31.614 exibições
  10. Só Os Loucos Sabem - Charlie Brown Jr. Manteve-se 29.933 exibições
  1. Henrique e Juliano- Manteve-se 233.447 exibições
  2. Jorge e Mateus- Manteve-se 227.732 exibições
  3. Legião Urbana- Manteve-se 173.845 exibições
  4. Charlie Brown Jr.- Manteve-se 155.256 exibições
  5. Bruno e Marrone- Manteve-se 107.589 exibições
  6. Fernandinho- Manteve-se 103.576 exibições
  7. Marcos e Belutti- Manteve-se 95.742 exibições
  8. Malta- Manteve-se 93.755 exibições
  9. Luan Santana- Manteve-se 87.747 exibições
  10. Lucas Lucco- Manteve-se 79.527 exibições
Exibir acordes »

Cifras e tabs

Fórum Cifra Club

Aprenda

Cifra Club News

Mais Serviços Cifra Club ID

Studio Sol

©1996 - 2014 Cifra Club · o primeiro, maior e mais acessado do Brasil · 342 mil músicas · 6.4 milhões pessoas cadastradas

publicidade
fechar