Under The Bridge

Red Hot Chili Peppers

 Red Hot Chili Peppers
Intro:Guitarra

Quando entra a bateria
G:----------------------------------------------------------|
D:----------------------------------------------------------|
A:----------------------------------------------------------|
E:------0-0-0-0-0-------------------------------------------|

"Well, I don't ever want to feel like I did that day"
G:----6--------4-------4------------------------------------|
D:----4----2-2---2-------2-4-4-4-4--------------------------|
A:-----------------4-2--------------------------------------|
E:----------------------------------------------------------|

"Take me to the place I love, take me all the way"
G:----6--------4-------4------------------------------------|
D:----4----2-2---2-------2-4-4-4/6\4/6\4--------------------|
A:-----------------4-2--------------------------------------|
E:----------------------------------------------------------|

"I don't ever want to feel like I did that day"
G:----6--------4-------4------------------------------------|
D:----4----2-2---2-------2-4-4-4-4--------------------------|
A:-----------------4-2--------------------------------------|
E:----------------------------------------------------------|

"Take me to the place I love, take me all the way"
G:----6--------4-------4------------------------------------|
D:----4----2-2---2-------2-4-4------------------------------|
A:-----------------4-2--------------------------------------|
E:----------------------------------------------------------|

Verso:
G:--------------------------------------------------|   |---9----|
D:--------------------------------------------------|   |--------|
A:----------2---------------------------2-----4-0-0-|   |--------|
E:--0------------4------5-------0-------------------|x3 |--------|

G:----6--------4-------4---------------------------------|
D:----4----2-2---2-------2-4~--4-6-4-2-4-----------------|
A:-----------------4-2-----------------------------------|
E:-------------------------------------------------------| 

G:----6--------4-------4---------------------------------|
D:----4----2-2---2-------2-4-4---------------------------|
A:-----------------4-2-----------------------------------|
E:-----------------------------2-2-----------------------|

G:----6--------4-------4------------------------------------|
D:----4----2-2---2-------2-4-4-4-4--------------------------|
A:-----------------4-2--------------------------------------|
E:----------------------------------------------------------|x2

ultima parte
G:------9----------------7----------5-----------------------|
D:----7---7-10--7-5-7--5---5-3--5-7---7-5-------------------|
A:----------------------------------------------------------|
E:----------------------------------------------------------|

G:------9-------------9-------7-----------5-----------------|
D:----7---7-10-10-7-7---7---5---5-3-3-5-7---7-5-7-7---------|
A:------------------------0---------------------------------|
E:----------------------------------------------------------|

G:------9----------------7----------5-----------------------|
D:----7---7-10--7-5-7--5---5-3--5-7---7-5-------------------|
A:----------------------------------------------------------|
E:----------------------------------------------------------|

G:----------------------------------------------------------|
D:----------------------------------------------------------|
A:----------------------------------------------------------|
E:-1-1-1-1-1-1-1-1---0-0-0-0-3-3-3-3------------------------|

G:------9----------------7----------5-----------------------|
D:----7---7-10--7-5-7--5---5-3--5-7---7-5-------------------|
A:----------------------------------------------------------|
E:----------------------------------------------------------|

G:-------------9---------7-----------5----------------------|
D:---7-7-7-7-7---7-----5---5-3-3-5-7---7-5-7-7--------------|
A:-----------------0----------------------------------------|
E:----------------------------------------------------------|

G:------9----------------7----------5-----------------------|
D:----7---7-10--7-5-7--5---5-3--5-7---7-5-------------------|
A:----------------------------------------------------------|
E:----------------------------------------------------------|

G:-------------9---------7-----------5----------------------|
D:---7-7-7-7-7---7-----5---5-3-3-5-7---7-5-7-7--------------|
A:-----------------0----------------------------------------|
E:----------------------------------------------------------|

G:------9----------------7----------5-----------------------|
D:----7---7-10--7-5-7--5---5-3--5-7---7-5-------------------|
A:----------------------------------------------------------|
E:----------------------------------------------------------|

G:------9-------------9-------7-----------5-----------------|
D:----7---7-10-10-7-7---7---5---5-3-3-5-7---7-5-7-7---------|
A:------------------------0---------------------------------|
E:----------------------------------------------------------|

G:------9----------------7----------5-----------------------|
D:----7---7-10--7-5-7--5---5-3--5-7---7-5-------------------|
A:----------------------------------------------------------|
E:----------------------------------------------------------|

G:--------------------------7-----------5-------------------|
D:----7-7-7-7-7-7-7-7-----5---5-3-3-5-7---7-5-7-7-----------|
A:--------------------0-------------------------------------|
E:----------------------------------------------------------|

G:------9----------------7----------5-----------------------|
D:----7---7-10--7-5-7--5---5-3--5-7---7-5-------------------|
A:----------------------------------------------------------|
E:----------------------------------------------------------|

G:------9-----9--------7-----------5------------------------|
D:----------7---7----5---5-3-3-5-7---7-5-7-7----------------|
A:----0---0-------0-----------------------------------------|
E:----------------------------------------------------------|

G:------9----------------7----------5-----------------------|
D:----7---7-10--7-5-7--5---5-3--5-7---7-5-------------------|
A:----------------------------------------------------------|
E:----------------------------------------------------------|

G:------9-----9--------7------------------------------------|
D:----------7---7----5---5-3~-------------7-----------------|
A:----0---0-------0-----------------------0-----------------|
E:----------------------------------------------------------|

Comentários 1

Composição: Anthony Kiedis / Chad Smith / Dominguinhos / Felix Rodriguez / Flea / John Frusciante / Ricardo Augusto / Vincent Ford
Esse não é o compositor? Avise-nos.
Contribuição: mugudao
publicidade
fechar