Leviana

Reginaldo Rossi

 Reginaldo Rossi
Tom: A
		
Solo da introdução:


E|-----------------4-5-5--------------4-5-5---------4-------
B|-7-5-7----------7-----7-5-7--------7-----7-5-7-----7-6-7--
G|-------6-4-6--6------------7-6-7--7-----------7-6---------
D|----------------------------------------------------------
A|----------------------------------------------------------
E|----------------------------------------------------------



E|-9-9-9-7-7-7-5-5-5-4-4-4---4------------------------------
B|-------------------------7---7----------------------------
G|-------------------------------6-4------------------------
D|-----------------------------------7-6-4------------------
A|----------------------------------------------------------
E|----------------------------------------------------------



     F#m
Eu te amei
          A
Me entreguei
E                                    B
De um jeito que ninguém jamais se entregou
D                                  A
Amor igual ao meu jamais vai encontrar
                                     B
Amar como eu te amo ninguém vai te amar
          F#m        G#m
Por que você ?
A                                E
Ficava sussurrando junto ao meu ouvido
                                  D
Mentiras misturadas com os seus gemidos
                         C#
E eu acreditava na sua palavra
   F#m     G#m
Leviana
A                               E
Fazendo mil loucuras comigo na cama
                                   D
Queria acreditar que você ainda me ama
                                 C#
E apesar de tudo eu sinto a sua falta
72.742 exibições

Comentários 0

Composição: Tony Brasil / Diogo
Esse não é o compositor? Avise-nos.
Contribuição: brenofreire85 Correções: Wellinton , Marciel e mais 2 »
Exibir acordes »
publicidade
fechar