O Melhor Que Eu Tenho

Regis Danese

 Regis Danese
Tom: D
		
D            A/C#                 Em
Eis aqui senhor o melhor que eu tenho
    G/A           A
O senhor mesmo me dá
D          A/C#              Em
És o meu pastor meu melhor amigo
          G/A           A           Bm
Que me sustenta e nada deixa me faltar
      D/E           G
De coração com alegria
       G/A         A          Bm
Quero devolver aquilo que é teu
       D/E             G
Estou aqui pra te ofertar
        Em7                           A4  A
As suas bênçãos sempre vão me acompanhar!

     D4         D    A/C#
Repreende todo mal
         Bm                  D/E
Abra as janelas do céu sobre mim
      G9   D/F#       A9
E derrama, benção sem fim
        D4           D  A/C#
Sei que és um deus fiel
       Bm7                   D/E
Na tua palavra está escrito assim
                     G      A              D   Bm...
Foi o senhor quem falou: "fazei prova de mim!"

(intro)

(solo guitarra)


E|------12----14-----10-----------------12-----14----10-------------17------10-10--------------|
B|-10-----------------------------10----------------------------10-----------------------------|
G|---------------------------------------------------------------------------------------------|
D|---------------------------------------------------------------------------------------------|
A|---------------------------------------------------------------------------------------------|
E|---------------------------------------------------------------------------------------------|


(A G Eb F)


E|--------------------11---13-------15-------------18-18---------------------------------------|
B|-----------11---13---------------------------------------------------------------------------|
G|--10---12------------------------------------------------------------------------------------|
D|---------------------------------------------------------------------------------------------|
A|---------------------------------------------------------------------------------------------|
E|---------------------------------------------------------------------------------------------|


     Eb4         Eb    Bb/D
Repreende todo mal
         Cm                  Eb/Bb
Abra as janelas do céu sobre mim
      G#9   Eb/G       Bb9
E derrama, benção sem fim
        Eb4           Eb  Bb/D
Sei que és um deus fiel
       Cm7                   Eb/Bb
Na tua palavra está escrito assim
                     G#      B#              Eb
Foi o senhor quem falou: "fazei prova de mim!"

(intro final)
Cm Bb G#
66.014 exibições

Comentários 2

Composição: ADF / Armato / Nina Mares / Seymour B. Simons
Esse não é o compositor? Avise-nos.
Contribuição: tosim Correções: Edu , Jose e mais 2 »
Exibir acordes »
publicidade
fechar