Sai Dessa Vida

Relber e Allan

 Relber e Allan Compositor: João Márcio / Fabiano
Tom: G
		
(intro)(D) Em C9 G D


E|-----3-2-3-----3-2-3---3-3-5-7-5-3----3-3-5-7-5----|
B|--3-3-------3-3------------------------------------|
G|---------------------------------------------------|
D|---------------------------------------------------|
A|---------------------------------------------------|
E|---------------------------------------------------|



E|-----3-2-3-----3-2-3---3-3-5-7-5-3----3-3-5-7-10~~---|
B|--3-3-------3-3--------------------------------------|
G|-----------------------------------------------------|
D|-----------------------------------------------------|
A|-----------------------------------------------------|
E|-----------------------------------------------------|


  G
Pra que correr perigo
 Em
Por que não viver comigo?
 Am
Pra que levar a fama
  D
De dormir com quem não ama?
  G
Respeito seus defeitos
  Em
Sei que ninguém é perfeito
 Am
Entenda como é
  D                       (D)
Mas pra ser minha mulher

(refrão)
              G
Vai ter que mudar
             Em
Sair dessa vida
                C9
Te quero por inteira
                  D
Não te quero dividida
            G
A vida lá fora
           Em
Só te machucou
                 C9                       D
Fingindo ser feliz ao lado de quem nunca amou

 C9                           D
Ao meu lado tudo vai ser diferente
      G            D/F#             C9 (C9 - G/B - Am)
Pra viver o sonho que sonhei pra gente
    Am                               D
A paixão que estou sentindo é verdadeira
                   G    (G - D)
É amor pra vida inteira

  (solo)  Em C9 G D

E|-----3-2-3-----3-2-3---3-3-5-7-5-3----3-3-5-7-5----|
B|--3-3-------3-3------------------------------------|
G|---------------------------------------------------|
D|---------------------------------------------------|
A|---------------------------------------------------|
E|---------------------------------------------------|



E|-----3-2-3-----3-2-3---3-3-5-7-5-3----3-3-5-7-10~~---|
B|--3-3-------3-3--------------------------------------|
G|-----------------------------------------------------|
D|-----------------------------------------------------|
A|-----------------------------------------------------|
E|-----------------------------------------------------|


  G
Pra que correr perigo
 Em
Por que não viver comigo?
 Am
Pra que levar a fama
  D
De dormir com quem não ama?
  G
Respeito seus defeitos
  Em
Sei que ninguém é perfeito
 Am
Entenda como é
  D                       D
Mas pra ser minha mulher

(refrão)
              G
Vai ter que mudar
             Em
Sair dessa vida
                C9
Te quero por inteira
                  D
Não te quero dividida
            G
A vida lá fora
           Em
Só te machucou
                 C9                       D
Fingindo ser feliz ao lado de quem nunca amou

              G
Vai ter que mudar
             Em
Sair dessa vida
                C9
Te quero por inteira
                  D
Não te quero dividida
            G
A vida lá fora
           Em
Só te machucou
                 C9                       D
Fingindo ser feliz ao lado de quem nunca amou

 C9                           D
Ao meu lado tudo vai ser diferente
      G            D/F#             C9 (C9  G/B  Am)
Pra viver o sonho que sonhei pra gente
    Am                               D
A paixão que estou sentindo é verdadeira
                   G  C  G
É amor pra vida inteira
35.164 exibições

Comentários 1

  • velhim velhim: Postado em 15/10/2011 13:36

    Adorei a música. Sucesso para a dupla.

Composição: Sabe quem é o compositor? Envie pra gente. Contribuição: Chalon Correções: CarlosL33T »
Exibir acordes »
publicidade
fechar