Keep On Loving You

REO Speedwagon

 REO Speedwagon Compositor: Reo Speedwagon
Tom: C
		
F            G           F          G         F
You shoud've seen by the look in my eyes, baby
          G              F G
There was something missin
F            G            F          G          F
You shoud've known by the tone of my voice, baby
        G           F G
But you didn't listen
F          G
You played dead
F             G
But you never bled
Am
Instead you lay still in the grass
                  G
All coiled up and hissin

F            G        F           G
And though I know all about those men
F       G            F G
Still I don't remember
F            G            F      G   F
Cause it was us baby, way before then
F         G             F
And we're still together
F     G      F          G
And I meant, every word I said
Am
When I said that I love you I meant
                      G F Em
That I love you forever

              C       F      G
And I'm gonna keep on lovin' you
               C          F       G
Cause it's the only thing I wanna do
Am
I don't wanna sleep
Am                   G         F Em
I just wanna keep on lovin' you

(solo)

F     G     F            G
And I meant every word I said
     Am
When I said that I love you I meant
                  G    F Em
That I love you forever

              C       F      G
And I'm gonna keep on lovin' you
               C          F       G
Cause it's the only thing I wanna do
Am
I don't wanna sleep
Am                   G         F Em C
I just wanna keep on lovin' you


*Solo (com distorçao)


E|----------------------------------------------------------------
B|--15b17---15b17r15-13h15p13-----13---12b14r12b14----------------
G|----------------------------14----------------------------------
D|----------------------------------------------------------------
A|----------------------------------------------------------------
E|----------------------------------------------------------------



E|-----------5/7--12-12---5/7-12-12--5/7-12--15-12-17~------------
B|----------------------------------------------------------------
G|----------------------------------------------------------------
D|----------------------------------------------------------------
A|-19/5...--------------------------------------------------------
E|-19/5...--------------------------------------------------------



E|-15-12-15-12-15/17--(2x)---15-12-15-12-15-19b20-19b20-----------
B|----------------------------------------------------------------
G|----------------------------------------------------------------
D|----------------------------------------------------------------
A|----------------------------------------------------------------
E|----------------------------------------------------------------
2.697 exibições

Comentários 1

  • vinyhendrix vinyhendrix: Postado em 19/11/2012 19:51

    falta so o solo o mais foda da musica

Composição: Doug Johnson / Marty Sampson / Richards
Esse não é o compositor? Avise-nos.
Contribuição: MARCO Correções: vinyhendrix »
Exibir acordes »
publicidade
fechar