Florzinha

Resgate

 Resgate
Tom: D
		
Intro: 
      G    B  C  C# D
      

e|----------------- 
B|----------------- 
G|----------------- 
D|----------------- 
A|---------2-3-4-5- 
E|-3-3-3-3--------- 


D                        D/G  ou G
Eu sou uma florzinha de Jesus
D                        D/G
Eu abro a boquinha para cantar
D                       D/G
Fecho os olhinhos para orar
D                        D/G
Eu sou uma florzinha de Jesus
D        D/G
Sim de Jesus

FINAL


-----------------|            e|--3---------2-3----
-----------------|            B|----3-3-4-3--------
-----------------|            G|-------------------
-----------------|  4x        D|-------------------
--------2-3-4-5--|            A|-------------------
3-3-3-3----------|            E|-------------------
19.756 exibições

Comentários 0

Composição: RESGATE
Esse não é o compositor? Avise-nos.
Contribuição: Gohan_Corvo Correções: UGP »
Consegui tocarAinda não conseguiram tocar essa música. Seja o primeiro!
    Não consegui tocar
    Exibir acordes »
    publicidade
    fechar