Sagrado Coração

Rinaldo e Samuel

Sem foto do Rinaldo e Samuel Compositor: Samuel
Tom: A
		
INTRODUÇÃO:

VIOLÃO BASE: | A E/G# F#m7 D | 2X

VIOLÃO SOLO: JUNTO COM A BASE (2X)


E|--------7--------7--------9--------5--------------------------------------------------------------|
B|---3/5------3/5------5/7------3/5-----------------------------------------------------------------|
G|--------------------------------------------------------------------------------------------------|
D|--------------------------------------------------------------------------------------------------|
A|--------------------------------------------------------------------------------------------------|
E|--------------------------------------------------------------------------------------------------|


VIOLINO: NA SEGUNDA VEZ

| A E E E D C# D C# | A B C# D C# A F# E | (NOTAS)


A           E/G#              F#m7  D
Por onde eu ando sinto sua presença
    A         E/G#              F#m7         D
Em todos os lugares está sempre perto de mim
    A              E/G#              F#m7  D
Em minhas escolhas      vens me iluminar
A                E/G#                   F#m7          D
Como posso te deixar se mesmo quando eu erro vens me amar
       A          E/G#             F#m7         D
E me ajudas a acertar e na tua direção caminhar


TECLADO: | D C# A B A G# A G# F# E | 2X (JUNTO COM AS ESTROFES ABAIXO) - [SÃO NOTAS E NÃO ACORDES]

D                   E              F#m7                      E/G#
Como seria a minha vida se as Tuas mãos não estivessem sobre mim
D                    E                F#m7                    E/G#
Como seriam os meus sonhos se o Teu Espírito não habitasse em mim

A               E/G#
O Teu amor me envolve
F#m7             D
O Teu amor me protege
A                E/G#
És o meu porto seguro
    F#m7                      D       A  E/G#
O melhor lugar de estar é no Teu coração
            F#m7 D
Sagrado coração


INTRODUÇÃO: | A E/G# F#m7 D | (BASE, SOLO E VIOLINO)


REPETE TUDO DO INÍCIO


SOLO VIOLÃO: A  E/G#  F#m7  D  A  E/G#  F#m7  D


E|-----------5/4-------------------------------------------------------------------------------------|
B|----------------5--5/7--5-2--3/5--2----------------------------------------------------------------|
G|---2--4/6----------------------------2--2/4--2-----------------------------------------------------|
D|---------------------------------------------------------------------------------------------------|
A|---------------------------------------------------------------------------------------------------|
E|---------------------------------------------------------------------------------------------------|



E|-------------9/7---9h----------------------12--12--------------------------------------------------|
B|------------10/9-------9--9/10--10-----10----------------------------------------------------------|
G|-----------------------9--9/11--11--9--------------------------------------------------------------|
D|---7--9/11-----------------------------------------------------------------------------------------|
A|---------------------------------------------------------------------------------------------------|
E|---------------------------------------------------------------------------------------------------|


VOLTA PARA: Como seria a minha vida...

A               E/G#
O Teu amor me envolve
F#m7             D
O Teu amor me protege
A                E/G#
És o meu porto seguro
    F#m7                      D       A  E/G#
O melhor lugar de estar é no Teu coração
            F#m7 D
Sagrado coração


FINAL: (DEDILHANDO OS ACORDES)

A               E/G#
O Teu amor me envolve
F#m7             D
O Teu amor me protege
A                E/G#
És o meu porto seguro
    F#m7             E        D       A
O melhor lugar de estar é no Teu coração
29.936 exibições

Comentários 2

  • cristianebauru cristianebauru: Postado em 27/07/2012 19:11

    que musica maravilhosa. sentimos a presença de Deus ao ouvi-la. Parabens |||

  • thalipink thalipink: Postado em 22/04/2012 02:26

    adoro essa musica benção de Deus!

Composição: Sabe quem é o compositor? Envie pra gente. Contribuição: conhece Correções: altair_alves e mais 2 »
Exibir acordes »
publicidade
fechar