Baila Comigo

Rita Lee

 Rita Lee
Tom: G
		
Rita Lee / Roberto de Carvalho


Intro:	E       E5+       E6 E7	 Solo: (flauta)
E|-------0--------0--------0-----|-----------------------------------------------
B|-----0--------1--------2----3--|-4---------------------------------------5-----
G|---1--------1--------1------1--|----7-----4--4-6-7-6-4--7--6--4-4-6-7-6-----7--
D|-2--------2--------2--------2--|-------7---------------------------------------
A|-------------------------------|-----------------------------------------------
E|-------------------------------|-----------------------------------------------



E|-----------------------------------------------
B|-----------------------------------------------
G|-----4-5-4------------------------------2-5p4--
D|-7-7-------7-7-5---5-5-7-8-7-5-5-3--3h5--------
A|-----------------------------------------------
E|-----------------------------------------------



           A7M Bm7          E      A7M   Bm7
Se Deus quiser, um dia eu quero ser índio
         E       A7M         Am7   D7(9)    G7M  G6 Gm7
Viver pelado, pintado de verde num eterno domingo
      C7(9)      F7M      F6        B7
Ser um bicho preguiça e espantar turista
         E            E5+           E6             E7
E tomar banho de sol, banho de sol, banho de sol, sol

Se Deus quiser um dia acabo voando
Tão banal, assim como um pardal, meio de contrabando
Desviar de estilingue, deixar que me xinguem
E tomar banho de sol, banho de sol, banho de sol, banho de sol

Bm7  E  A7M F#m7 Bm7
Baila comigo,
         E        A7M F#m7
Como se baila na tribo
Bm7 E   A7M F#m7 B7(9)
Baila comigo,
                  E  E5+ E6 E7
Lá no meu esconderijo

Se Deus quiser um dia eu viro semente
E quando a chuva molhar o jardim, ah, eu fico contente
E na primavera vou brotar na terra
E tomar banho de sol, banho de sol, banho de sol, sol

Se Deus quiser um dia eu morro bem velha
Na hora "H" quando a bomba estourar quero ver da janela
E entrar no pacote de camarote
E tomar banho de sol, banho de sol, banho de sol, banho de sol
79.180 exibições

Comentários 0

Composição: John Ondrasik / Rita Lee
Esse não é o compositor? Avise-nos.
Exibir acordes »
publicidade
fechar