Jardins da Babilônia

Rita Lee

 Rita Lee
Tom: G
		
Intro:

E|--8/6----8--8---8/6---3-1--3-3-3-1----8/6----8--8---8/6-------------------------------------
B|-10/8---10-10--10/8---5-3--5-5-5-3---10/8---10-10--10/8--10-10-10-9-9-9-8-8-8-7-------------
G|--9/7----9--9---9/7---4-2--4-4-4-2----9/7----9--9---9/7-------------------------------------
D|-10/8---10-10--10/8---5-3--5-5-5-3---10/8---10-10--10/8---8--8--8-7-7-7-6-6-6-5-------------
A|--------------------------------------------------------------------------------------------
E|--------------------------------------------------------------------------------------------


Solo:

E|---------------------------------------------5--5-5-3--------3-3----------------------------
B|-------------3-3---3---3---3/6-6-6---6---6-8---------------3-----5-3------------------------
G|-----0-2-0-4-----4---4---4---------7---7-----------------4-----------4-5-2-4-0--------------
D|-0-2---------------------------------------------------5-----------------------2-0----------
A|-----------------------------------------------------------------------------------3-2-3-2--
E|--------------------------------------------------------------------------------------------



E|---------------------7-10-7-10-7-3--------------------------------------3-3-----------------
B|-------------------8---------------6-3-----------------3--------------3-----6-3-----------3-
G|-----------------7---------------------5-3---3-3---3-3---5-3------3-5-----------5-3---3-5---
D|-------5-4-5-7-5---------------------------5-----5-----------5-5--------------------5-------
A|-3-5-7--------------------------------------------------------------------------------------
E|--------------------------------------------------------------------------------------------



E|-------------------------------------------
B|-------------------------------------------
G|-5-5-5-------------10-10-10-9-9-9-8-8-8-7--
D|-------------------------------------------
A|-------3-3----------8--8--8-7-7-7-6-6-6-5--
E|-----------5-5-3---------------------------


G                              C
Suspenderam os jardins da Babilônia
          G
E eu prá não ficar por baixo
      D                    C         D
Resolvi botar as asas prá fora, porque
          G                                  C
Quem não chora dali, não mama daqui, diz o ditado
           G                    A        D   G
Quem pode, pode, deixa os acomodados que se incomodem

Em                     C
Minha saúde não é de ferro mão
Em                      A
Mas meus nervos são de aço
       G    Bm        Em
Prá pedir silêncio eu berro,
        D              A              D
 prá fazer barulho eu mesma faço, ou não

    G                                C
Mas pegar fogo nunca foi atração de circo
        G
Mas de qualquer maneira
       D                  C         D
Pode ser um caloroso espetáculo, então
          G                                      C
O palhaço ri dali, o povo chora daqui, e o show não pára
                G        A
E apesar dos pesares do mundo
       A       D  G
Vou segurar esta barra
101.576 exibições

Comentários 1

  • Débora Débora: Postado em 29/07/2014 19:45

    cifra toda errada

Composição: Chichin Ringer / John Ondrasik / Miltinho Edilberto / Rita Lee
Esse não é o compositor? Avise-nos.
Contribuição: r.biarose
Exibir acordes »
publicidade
fechar