Ovelha negra

Rita Lee

 Rita Lee
Tom: D
		

E|--------------|-----2-----0---------|--------------|-----5-3-2-3---------|
B|--------------|-------5-3----3--0---|-0-3----------|--------------7--3-5-|
G|--------------|--2----------------2-|--------------|--2------------------|
D|--------------|---------------------|--------------|---------------------|
A|--------------|---------------------|--------------|---------------------|
E|--------------|---------------------|--------------|---------------------|



E|-2-5----------|-----5-5-5-7--5-3--2-|------0---5----|--------------|
B|--------------|---------------------|-2------7---5--|--------------|
G|--------------|--2------------------|---------------|--------------|
D|--------------|---------------------|---------------|--------------|
A|--------------|---------------------|---------------|--------------|
E|--------------|---------------------|---------------|--------------|



E|--------------|-----2-----0---------|--------------|-----5-3-2-3---------|
B|--------------|-------5-3----3--0---|-0-3----------|--------------7--3-5-|
G|--------------|--2----------------2-|--------------|--2------------------|
D|--------------|---------------------|--------------|---------------------|
A|--------------|---------------------|--------------|---------------------|
E|--------------|---------------------|--------------|---------------------|



E|-2-5----------|-----5-5-5-7--5-3--2-|------0---5----|--------------|
B|--------------|---------------------|-2------7---5--|--------------|
G|--------------|--2------------------|---------------|--------------|
D|--------------|---------------------|---------------|--------------|
A|--------------|---------------------|---------------|--------------|
E|--------------|---------------------|---------------|--------------|



E|-5-0--------0--3-|-----3-3-3--2------|--6-6-6-6---3-5--5-3----|
B|-----------------|-----3-3-3----5-3--|--3-3-3-3-6-----------6-|
G|----------6------|-------------------|------------------------|
D|-----------------|-------------------|------------------------|
A|-----------------|-------------------|------------------------|
E|-----------------|-------------------|------------------------|



E|--3-3-3-3-3-3-5-3---|--5-5-5-5-5-5-7-5---0---|-----3-3-3--2------|
B|------------------3-|------------------7---3-|-----3-3-3----5-3--|
G|--------------------|------------------------|-------------------|
D|--------------------|------------------------|-------------------|
A|--------------------|------------------------|-------------------|
E|--------------------|------------------------|-------------------|



E|--6-6-6-6---3-5--5-3----|--3-3-3-3-3-3-5-3---|--5-5-5-5-5-5-7-5-2-0---|
B|--3-3-3-3-6-----------6-|------------------3-|----------------------3-|
G|------------------------|--------------------|------------------------|
D|------------------------|--------------------|------------------------|
A|------------------------|--------------------|------------------------|
E|------------------------|--------------------|------------------------|



E|------------------|--2-------0----0-0-|--------------|-5---0--------|
B|-3------------3-0-|------------2------|--2-----------|--------------|
G|------------------|-------------------|--------------|--------------|
D|------------------|-------------------|--------------|--------------|
A|------------------|-------------------|--------------|--------------|
E|------------------|-------------------|--------------|--------------|



E|-0------------0---|-2--------0----0-0-|--------------|-5---0--------|
B|----------------2-|------------2------|-----2--------|--------------|
G|------------------|-------------------|--------------|--------------|
D|------------------|-------------------|--------------|--------------|
A|------------------|-------------------|--------------|--------------|
E|------------------|-------------------|--------------|--------------|



E|-----2-----0---------|--------------|-----5-3-2-3---------|-2-5----------|
B|-------5-3----3--0---|-0-3----------|--------------7--3-5-|--------------|
G|--2----------------2-|--------------|--2------------------|--------------|
D|---------------------|--------------|---------------------|--------------|
A|---------------------|--------------|---------------------|--------------|
E|---------------------|--------------|---------------------|--------------|



E|-----5-5-5-7--5-3--2-|------0---5----|--------------|--------------|
B|---------------------|-2------7---5--|--------------|--------------|
G|--2------------------|---------------|--------------|--------------|
D|---------------------|---------------|--------------|--------------|
A|---------------------|---------------|--------------|--------------|
E|---------------------|---------------|--------------|--------------|



E|-----2-----0---------|--------------|-----5-3-2-3---------|-2-5----------|
B|-------5-3----3--0---|-0-3----------|--------------7--3-5-|--------------|
G|--2----------------2-|--------------|--2------------------|--------------|
D|---------------------|--------------|---------------------|--------------|
A|---------------------|--------------|---------------------|--------------|
E|---------------------|--------------|---------------------|--------------|



E|-----5-5-5-7--5-3--2-|------0---5----|--------------|-5-0--------0--3-|
B|---------------------|-2------7---5--|--------------|-----------------|
G|--2------------------|---------------|--------------|----------6------|
D|---------------------|---------------|--------------|-----------------|
A|---------------------|---------------|--------------|-----------------|
E|---------------------|---------------|--------------|-----------------|



E|-----3-3-3--2------|--6-6-6-6---3-5--5-3----|--3-3-3-3-3-3-5-3---|
B|-----3-3-3----5-3--|--3-3-3-3-6-----------6-|------------------3-|
G|-------------------|------------------------|--------------------|
D|-------------------|------------------------|--------------------|
A|-------------------|------------------------|--------------------|
E|-------------------|------------------------|--------------------|



E|--5-5-5-5-5-5-7-5---0---|-----3-3-3--2------|--6-6-6-6---3-5--5-3----|
B|------------------7---3-|-----3-3-3----5-3--|--3-3-3-3-6-----------6-|
G|------------------------|-------------------|------------------------|
D|------------------------|-------------------|------------------------|
A|------------------------|-------------------|------------------------|
E|------------------------|-------------------|------------------------|



E|--3-3-3-3-3-3-5-3---|--5-5-5-5-5-5-7-5-2-0---|------------------|
B|------------------3-|----------------------3-|-3------------3-0-|
G|--------------------|------------------------|------------------|
D|--------------------|------------------------|------------------|
A|--------------------|------------------------|------------------|
E|--------------------|------------------------|------------------|



E|--2-------0----0-0-|--------------|-5---0--------|-0------------0---|
B|------------2------|--2-----------|--------------|----------------2-|
G|-------------------|--------------|--------------|------------------|
D|-------------------|--------------|--------------|------------------|
A|-------------------|--------------|--------------|------------------|
E|-------------------|--------------|--------------|------------------|



E|-2--------0----0-0-|--------------|-5-0--------0-----|--------------|
B|------------2------|-----2--------|----------2-------|--------------|
G|-------------------|--------------|---------------12-|--------------|
D|-------------------|--------------|------------------|--------------|
A|-------------------|--------------|------------------|--------------|
E|-------------------|--------------|------------------|--------------|

Comentários 1

Composição: John Ondrasik / Rita Lee
Esse não é o compositor? Avise-nos.
Contribuição: caiogabriel
Exibir acordes »
publicidade
fechar