Janeiros

Roberta Sá

 Roberta Sá
Tom: C#
		
(intro)


     Ebm                       Ebm/Db                  Cm7(b5)
E |------------------------------------------------------------------------------
B |--------------------------------------------2---------------------------------
G |------------------------------------------3---3-1-----------1h3-1-------------
D |--------------1h3-4-3-1-----------------3--------4-2--1-3-4-------4-3-1-------
A |--------1-3-4------------3-4--------1-4---------------------------------4-3-2-
E |--0-1-2-----------------------0-1-2-------------------------------------------



     (arpejo em )                Bbm7
E |----------1------1-----------------
B |-------3---------------------------
G |----1--------------3---------------
D |--3---3--3-----------4-3-1---------
A |2--------------------------4-3-1---
E |-----------------------------------


(durante solo)  Ebm7  Ebm7/Db  Cm7(b5)  

Bbm7           Cm7(b5)
É como o vento leve
       F7         Bbm
em seu lábio assobiar
	  Ab7
A melodia breve
		   Db6
lembrando brisa de mar
	 Cm7(b5)       F7
Mexendo maré num vai e vem
    Bb/Ab
pra se ofertar
		Ebm6      Cm7(b5)
Flor que quer desabrochar
  Bbm   Bbm/Ab	      Cm7(b5)  F7
Nasceu    dourando manhã...
      Ebm   Ebm/Db Cm7(b5)  Bbm  Bbm/Ab
Bor - dan - do 		  areia
    Cm7(b5)	       F7          Bbm
Com luz de candeia pra nunca se apagar.
	    Ab7     Db6
Já passaram dias  inteiros
  Ab7
Janeiros
	       Db6
Calendário que nunca chega ao fim
 Cm7(b5)    F7
Início sim
  Bb/Ab
E só recomeçar
      Ebm   Ebm/Db Cm7(b5)  Bbm  Bbm/Ab
Bor...dan...do 		  areia
    Cm7(b5)	       F7          Bbm
Com luz de candeia pra nunca se apagar.
      Bb7
E iluminar
      Ebm   Ebm/Db Cm7(b5)  Bbm  Bbm/Ab
Bor...dan...do 		  areia
    Cm7(b5)	       F7          Bbm
Com luz de candeia pra nunca se apagar
8.875 exibições

Comentários 0

Composição: Roberta Sá e Pedro Luís
Esse não é o compositor? Avise-nos.
Contribuição: thai Correções: Dudub e mais 1 »
Consegui tocarAinda não conseguiram tocar essa música. Seja o primeiro!
    Não consegui tocar
    Exibir acordes »
    publicidade
    fechar