A Volta

Roberto Carlos

 Roberto Carlos
Tom: F#
		
Bbm                            Fm
  estou guardando o que há de bom   em mim
Bbm                       Fm
  para lhe dar quando você   chegar
F#        Ab7
 toda ternura
   C#   Fm   Bbm
e todo meu amor
Fm                       Ebm   Ab7
 estou guardando pra lhe dar

Bbm                    Fm
  e toda vez que você me beijar
Bbm                    Fm
  a minha vida quero lhe en...tregar
F#          Ab7
 e em cada beijo
C#     Fm   Bbm
certo ficarei
Fm                      Ebm    Ab7
 que você não vai me deixar

Bb                           F7
grande demais foi sempre o nosso   amor
Bb                       F7
mas o destino quis nos se...parar
   Eb            F7          Bb          Bbm
e agora que está perto o dia de você chegar
Fm                            Ebm   Ab7
  o que há de bom vou lhe entregar
Bbm                    Fm
  só vejo a hora de você   chegar
Bbm                       Fm
  pra' todo o meu amor poder   mostrar
F#           Ab7
mas quando eu
    C#    Fm Bbm
de perto te olhar
Fm                      Ebm   Ab7
 não sei se vou poder falar

(solo)

Bbm                           Fm
 estou guardando o que há de bom em mim para lhe dar quando você chegar
Bbm                           Fm
 estou guardando o que há de bom em mim para lhe dar quando você chegar


E|--------------------------------|
B|--------------------------------|
G|---3-5-6----5-3-6-5-------------|
D|-3---------------------3-3------|
A|--------------------------------|
E|--------------------------------|


ou

E|--------------------------------|
B|--------------------------------|
G|--------------------------------|
D|--------------------------------|
A|---1-3-4----3-1-4-3-------------|
E|-1--------------------1-1-------|




E|------------------------------------------------------------------------------------------------|
B|---------------------------------------------------------------------------------------9/6------|
G|------------------------------------10----------------------------------------------------------|
D|----8-8/10-10/11-10-8-10/11-10-8/10----8-6---6/8-----8/10-10/11-10-10-8-10-11-10-8/10-----------|
A|--8---------------------------------------10-------8--------------------------------------------|
E|------------------------------------------------------------------------------------------------|



E|---------------------------------------------------------------------6-6------------------------|
B|------------------------------------------------------------------------------------------------|
G|--9/10-9/10-8-8-8/6-6-----------8---------------6-8/10-6-8-6-8/10----------10-8-8P10------------|
D|----------------------8-6-8/10----10-6------6-8-------------------------------------------------|
A|---------------------------------------8-6-8----------------------------------------------------|
E|------------------------------------------------------------------------------------------------|



E|------------------------------------------------------------------------------------------------|
B|------------------------------------------------------------------------------------------------|
G|--------8--------------8-8-6-6/5-5-6-5----------------------------------------------------------|
D|--8/10---10/8-6------------------------6--------------------------------------------------------|
A|----------------8-------------------------------------------------------------------------------|
E|------------------------------------------------------------------------------------------------|

Comentários 2

  • didicornelio didicornelio: Postado em 26/01/2013 14:02

    didi cornelio...roberto sempre foi roberto!!!!

  • didicornelio didicornelio: Postado em 21/01/2013 18:19

    essa sim! que

Composição: Alessandro Matias / Antonio Luiz / Denniz Pop / Erasmo Carlos / Joyce / Roberto Carlos
Esse não é o compositor? Avise-nos.
Contribuição: gui rigo Correções: JUCA BALA , Tadeu Freitas e mais 2 »
Exibir acordes »
publicidade
fechar