Amor Sem Limite

Roberto Carlos

 Roberto Carlos
Tom: D
		
D
Quando a gente ama alguém de verdade
                     A
esse amor não se esquece.
   G
O tempo passa, tudo passa,
                          D
mas no peito o amor permanece.

D
E qualquer minuto longe é demais,
               A
a saudade atormenta.
G
Mas qualquer minuto perto é bom demais,
             D
o amor só aumenta.

         A
Vivo por ela
           D
Ninguém duvida
               A
Por que ela é tudo
          D
Na minha vida

D
Eu nunca imaginei que houvesse no mundo
               A
um amor desse jeito.
    G
Do tipo que quando se tem não se sabe
            D
se cabe no peito.

D
Mas eu posso dizer que sei o que é ter
               A
um amor de verdade.
   G
E um amor assim eu sei que é prá sempre,
             D
é prá eternidade.

         A
Vivo por ela
           D
Ninguém duvida
               A
Por que ela é tudo
          D
Na minha vida

(solo) G D A G G D A


E|------------------------------10-10h12-----10------------12b(12)-10-9-9/10
B|------------------------10/12----------12b----12b(12)p10------------------
G|-------------------9-11---------------------------------------------------
D|------------7-9/10--------------------------------------------------------
A|------5-7-9---------------------------------------------------------------
E|--5-7---------------------------------------------------------------------



----------------------------------10-12-12b-12br(12)p10h12------------------|
-12b(12)p10h12p10-----------10/12--------------------------10---------------|
-----------------------9-11------------------------------------9b(9)p7h9p7--|
------------------9-11------------------------------------------------------|
----------------------------------------------------------------------------|
----------------------------------------------------------------------------|


      G
Quem ama não esquece quem ama,
            D
o amor é assim.
                       A
Eu tenho esquecido de mim,
                         D
mas dela eu nunca me esqueço.
    G
Por ela, esse amor infinito,
               D
o amor mais bonito,
                          A
é assim nosso amor sem limite.
                           D
O maior e mais forte que existe.

         A
Vivo por ela
           D
Ninguém duvida
               A
Por que ela é tudo
          D
Na minha vida

Comentários 11

  • André André: Postado em 23/11/2014 17:23

    O compasso é 6/8.

  • jordana jordana: Postado em 30/03/2014 15:24

    Pode ser tocada no ritmo de valsa

  • marta marta: Postado em 07/03/2014 15:56

    quem sab o ritmo ? ↓↓↑↓↓

  • tompassat tompassat: Postado em 15/01/2014 18:43

    alguem sabe o ritmooo??

  • Luana Luana: Postado em 12/04/2013 13:01

    alguém sabe o ritmo ?

  • levialvesu2 levialvesu2: Postado em 07/12/2012 18:53

    bem facinho

    • marta marta: Postado em 07/03/2014 15:56

      se vc tocou passe o ritmo ai.

  • thebestpri thebestpri: Postado em 04/07/2012 13:39

    queria saber o ritmo dela alguem me ajuda por favor!!!

  • Lu Lu: Postado em 22/12/2011 22:57

    é facinha....Toqueii em minutos...E boooa tbm...

Exibindo 10 de 11 comentários Mostrar mais ver todos »
Composição: Antonio Luiz / Joyce / Roberto Carlos
Esse não é o compositor? Avise-nos.
Contribuição: leleo
Exibir acordes »
publicidade
fechar